  0
SECTION
  2
HEADER
  9
$ACADVER
  1
AC1012
  9
$DWGCODEPAGE
  3
ansi_1252
  9
$INSBASE
 10
0.0
 20
0.0
 30
0.0
  9
$EXTMIN
 10
0.0
 20
0.0
 30
0.0
  9
$EXTMAX
 10
148.5
 20
105.0
 30
0.0
  9
$LIMMIN
 10
0.0
 20
0.0
  9
$LIMMAX
 10
148.5
 20
105.0
  9
$ORTHOMODE
 70
     0
  9
$REGENMODE
 70
     1
  9
$FILLMODE
 70
     1
  9
$QTEXTMODE
 70
     0
  9
$MIRRTEXT
 70
     1
  9
$DRAGMODE
 70
     2
  9
$LTSCALE
 40
1.0
  9
$OSMODE
 70
    37
  9
$ATTMODE
 70
     1
  9
$TEXTSIZE
 40
1.75
  9
$TRACEWID
 40
1.0
  9
$TEXTSTYLE
  7
STANDARD
  9
$CLAYER
  8
0
  9
$CELTYPE
  6
BYLAYER
  9
$CECOLOR
 62
   256
  9
$CELTSCALE
 40
1.0
  9
$DELOBJ
 70
     1
  9
$DISPSILH
 70
     0
  9
$DIMSCALE
 40
1.0
  9
$DIMASZ
 40
1.651
  9
$DIMEXO
 40
0.5
  9
$DIMDLI
 40
3.75
  9
$DIMRND
 40
0.0
  9
$DIMDLE
 40
0.0
  9
$DIMEXE
 40
0.5
  9
$DIMTP
 40
0.0
  9
$DIMTM
 40
0.0
  9
$DIMTXT
 40
1.75
  9
$DIMCEN
 40
2.5
  9
$DIMTSZ
 40
0.0
  9
$DIMTOL
 70
     0
  9
$DIMLIM
 70
     0
  9
$DIMTIH
 70
     1
  9
$DIMTOH
 70
     1
  9
$DIMSE1
 70
     0
  9
$DIMSE2
 70
     0
  9
$DIMTAD
 70
     1
  9
$DIMZIN
 70
     1
  9
$DIMBLK
  1

  9
$DIMASO
 70
     1
  9
$DIMSHO
 70
     1
  9
$DIMPOST
  1

  9
$DIMAPOST
  1

  9
$DIMALT
 70
     0
  9
$DIMALTD
 70
     3
  9
$DIMALTF
 40
0.0393700787
  9
$DIMLFAC
 40
1.0
  9
$DIMTOFL
 70
     1
  9
$DIMTVP
 40
0.0
  9
$DIMTIX
 70
     0
  9
$DIMSOXD
 70
     0
  9
$DIMSAH
 70
     0
  9
$DIMBLK1
  1

  9
$DIMBLK2
  1

  9
$DIMSTYLE
  2
ISO-25
  9
$DIMCLRD
 70
     0
  9
$DIMCLRE
 70
     0
  9
$DIMCLRT
 70
     0
  9
$DIMTFAC
 40
1.0
  9
$DIMGAP
 40
0.762
  9
$DIMJUST
 70
     0
  9
$DIMSD1
 70
     0
  9
$DIMSD2
 70
     0
  9
$DIMTOLJ
 70
     0
  9
$DIMTZIN
 70
     1
  9
$DIMALTZ
 70
     0
  9
$DIMALTTZ
 70
     0
  9
$DIMFIT
 70
     3
  9
$DIMUPT
 70
     0
  9
$DIMUNIT
 70
     2
  9
$DIMDEC
 70
     2
  9
$DIMTDEC
 70
     2
  9
$DIMALTU
 70
     2
  9
$DIMALTTD
 70
     3
  9
$DIMTXSTY
  7
STANDARD
  9
$DIMAUNIT
 70
     0
  9
$LUNITS
 70
     2
  9
$LUPREC
 70
     2
  9
$SKETCHINC
 40
1.0
  9
$FILLETRAD
 40
10.0
  9
$AUNITS
 70
     0
  9
$AUPREC
 70
     2
  9
$MENU
  1
.
  9
$ELEVATION
 40
0.0
  9
$PELEVATION
 40
0.0
  9
$THICKNESS
 40
0.0
  9
$LIMCHECK
 70
     0
  9
$CHAMFERA
 40
0.0
  9
$CHAMFERB
 40
0.0
  9
$CHAMFERC
 40
0.0
  9
$CHAMFERD
 40
0.0
  9
$SKPOLY
 70
     0
  9
$TDCREATE
 40
2456813.569106516
  9
$TDUPDATE
 40
2456813.569106863
  9
$TDINDWG
 40
0.0000000116
  9
$TDUSRTIMER
 40
0.0000000116
  9
$USRTIMER
 70
     1
  9
$ANGBASE
 50
0.0
  9
$ANGDIR
 70
     0
  9
$PDMODE
 70
     0
  9
$PDSIZE
 40
-1.0
  9
$PLINEWID
 40
0.0
  9
$COORDS
 70
     1
  9
$SPLFRAME
 70
     0
  9
$SPLINETYPE
 70
     6
  9
$SPLINESEGS
 70
     8
  9
$ATTDIA
 70
     0
  9
$ATTREQ
 70
     1
  9
$HANDLING
 70
     1
  9
$HANDSEED
  5
2CB
  9
$SURFTAB1
 70
     6
  9
$SURFTAB2
 70
     6
  9
$SURFTYPE
 70
     6
  9
$SURFU
 70
     6
  9
$SURFV
 70
     6
  9
$UCSNAME
  2

  9
$UCSORG
 10
0.0
 20
0.0
 30
0.0
  9
$UCSXDIR
 10
1.0
 20
0.0
 30
0.0
  9
$UCSYDIR
 10
0.0
 20
1.0
 30
0.0
  9
$PUCSNAME
  2

  9
$PUCSORG
 10
0.0
 20
0.0
 30
0.0
  9
$PUCSXDIR
 10
1.0
 20
0.0
 30
0.0
  9
$PUCSYDIR
 10
0.0
 20
1.0
 30
0.0
  9
$USERI1
 70
     0
  9
$USERI2
 70
     0
  9
$USERI3
 70
     0
  9
$USERI4
 70
     0
  9
$USERI5
 70
     0
  9
$USERR1
 40
0.0
  9
$USERR2
 40
0.0
  9
$USERR3
 40
0.0
  9
$USERR4
 40
0.0
  9
$USERR5
 40
0.0
  9
$WORLDVIEW
 70
     1
  9
$SHADEDGE
 70
     3
  9
$SHADEDIF
 70
    70
  9
$TILEMODE
 70
     1
  9
$MAXACTVP
 70
    64
  9
$PINSBASE
 10
0.0
 20
0.0
 30
0.0
  9
$PLIMCHECK
 70
     0
  9
$PEXTMIN
 10
1.0000000000E+20
 20
1.0000000000E+20
 30
1.0000000000E+20
  9
$PEXTMAX
 10
-1.0000000000E+20
 20
-1.0000000000E+20
 30
-1.0000000000E+20
  9
$PLIMMIN
 10
0.0
 20
0.0
  9
$PLIMMAX
 10
420.0
 20
297.0
  9
$UNITMODE
 70
     0
  9
$VISRETAIN
 70
     1
  9
$PLINEGEN
 70
     0
  9
$PSLTSCALE
 70
     1
  9
$TREEDEPTH
 70
  3020
  9
$PICKSTYLE
 70
     1
  9
$CMLSTYLE
  2
STANDARD
  9
$CMLJUST
 70
     0
  9
$CMLSCALE
 40
20.0
  9
$SAVEIMAGES
 70
     1
  0
ENDSEC
  0
SECTION
  2
CLASSES
  0
CLASS
  1
ACDBDICTIONARYWDFLT
  2
AcDbDictionaryWithDefault
  3
ObjectDBX Classes
 90
    32768
280
     0
281
     0
  0
CLASS
  1
VISUALSTYLE
  2
AcDbVisualStyle
  3
ObjectDBX Classes
 90
     4095
280
     0
281
     0
  0
CLASS
  1
MATERIAL
  2
AcDbMaterial
  3
ObjectDBX Classes
 90
     1153
280
     0
281
     0
  0
CLASS
  1
SCALE
  2
AcDbScale
  3
ObjectDBX Classes
 90
     1153
280
     0
281
     0
  0
CLASS
  1
SUN
  2
AcDbSun
  3
SCENEOE
 90
     1153
280
     0
281
     0
  0
CLASS
  1
XRECORD
  2
AcDbXrecord
  3
ObjectDBX Classes
 90
    32768
280
     0
281
     0
  0
ENDSEC
  0
SECTION
  2
TABLES
  0
TABLE
  2
VPORT
  5
8
330
0
100
AcDbSymbolTable
 70
     1
  0
VPORT
  5
29
330
8
100
AcDbSymbolTableRecord
100
AcDbViewportTableRecord
  2
*ACTIVE
 70
     0
 10
0.0
 20
0.0
 11
1.0
 21
1.0
 12
74.25
 22
52.5
 13
0.0
 23
0.0
 14
10.0
 24
10.0
 15
10.0
 25
10.0
 16
0.0
 26
0.0
 36
1.0
 17
0.0
 27
0.0
 37
0.0
 40
105.0
 41
1.4142857143
 42
50.0
 43
0.0
 44
0.0
 50
0.0
 51
0.0
 71
     0
 72
  2000
 73
     1
 74
     3
 75
     0
 76
     0
 77
     0
 78
     0
  0
ENDTAB
  0
TABLE
  2
LTYPE
  5
5
330
0
100
AcDbSymbolTable
 70
     8
  0
LTYPE
  5
14
330
5
100
AcDbSymbolTableRecord
100
AcDbLinetypeTableRecord
  2
BYBLOCK
 70
     0
  3

 72
    65
 73
     0
 40
0.0
  0
LTYPE
  5
15
330
5
100
AcDbSymbolTableRecord
100
AcDbLinetypeTableRecord
  2
BYLAYER
 70
     0
  3

 72
    65
 73
     0
 40
0.0
  0
LTYPE
  5
16
330
5
100
AcDbSymbolTableRecord
100
AcDbLinetypeTableRecord
  2
CONTINUOUS
 70
     0
  3
Solid line
 72
    65
 73
     0
 40
0.0
  0
LTYPE
  5
6A
330
5
100
AcDbSymbolTableRecord
100
AcDbLinetypeTableRecord
  2
SLD-DURCHGEHEND
 70
     0
  3
SolidWorks Line Style
 72
    65
 73
     0
 40
0.0
  0
LTYPE
  5
6B
330
5
100
AcDbSymbolTableRecord
100
AcDbLinetypeTableRecord
  2
SLD-GESTRICHELT
 70
     0
  3
SolidWorks Line Style
 72
    65
 73
     2
 40
1.905
 49
1.27
 74
     0
 49
-0.635
 74
     0
  0
LTYPE
  5
6C
330
5
100
AcDbSymbolTableRecord
100
AcDbLinetypeTableRecord
  2
SLD-PHANTOM
 70
     0
  3
SolidWorks Line Style
 72
    65
 73
     6
 40
12.7
 49
6.35
 74
     0
 49
-1.27
 74
     0
 49
1.27
 74
     0
 49
-1.27
 74
     0
 49
1.27
 74
     0
 49
-1.27
 74
     0
  0
LTYPE
  5
6D
330
5
100
AcDbSymbolTableRecord
100
AcDbLinetypeTableRecord
  2
SLD-KETTE
 70
     0
  3
SolidWorks Line Style
 72
    65
 73
     4
 40
10.16
 49
6.35
 74
     0
 49
-1.27
 74
     0
 49
1.27
 74
     0
 49
-1.27
 74
     0
  0
LTYPE
  5
6E
330
5
100
AcDbSymbolTableRecord
100
AcDbLinetypeTableRecord
  2
SLD-PUNKTSTRICH
 70
     0
  3
SolidWorks Line Style
 72
    65
 73
     4
 40
19.05
 49
15.24
 74
     0
 49
-1.27
 74
     0
 49
1.27
 74
     0
 49
-1.27
 74
     0
  0
LTYPE
  5
6F
330
5
100
AcDbSymbolTableRecord
100
AcDbLinetypeTableRecord
  2
SLD-NAHT
 70
     0
  3
SolidWorks Line Style
 72
    65
 73
     2
 40
0.635
 49
0.0
 74
     0
 49
-0.635
 74
     0
  0
LTYPE
  5
70
330
5
100
AcDbSymbolTableRecord
100
AcDbLinetypeTableRecord
  2
SLD-DICKE-DÜNNE-KETTE
 70
     0
  3
SolidWorks Line Style
 72
    65
 73
     4
 40
10.16
 49
6.35
 74
     0
 49
-1.27
 74
     0
 49
1.27
 74
     0
 49
-1.27
 74
     0
  0
ENDTAB
  0
TABLE
  2
LAYER
  5
2
330
0
100
AcDbSymbolTable
 70
     3
  0
LAYER
  5
10
330
2
100
AcDbSymbolTableRecord
100
AcDbLayerTableRecord
  2
0
 70
     0
 62
     7
  6
CONTINUOUS
  0
LAYER
  5
71
330
2
100
AcDbSymbolTableRecord
100
AcDbLayerTableRecord
  2
FORMAT
 70
     0
 62
     7
  6
SLD-DURCHGEHEND
  0
LAYER
  5
72
330
2
100
AcDbSymbolTableRecord
100
AcDbLayerTableRecord
  2
SLD-0
 70
     0
 62
     7
  6
SLD-DURCHGEHEND
  0
ENDTAB
  0
TABLE
  2
STYLE
  5
3
330
0
100
AcDbSymbolTable
 70
     3
  0
STYLE
  5
11
330
3
100
AcDbSymbolTableRecord
100
AcDbTextStyleTableRecord
  2
STANDARD
 70
     0
 40
0.0
 41
1.0
 50
0.0
 71
     0
 42
1.75
  3
txt
  4

  0
STYLE
  5
2B8
330
3
100
AcDbSymbolTableRecord
100
AcDbTextStyleTableRecord
  2
SLDTEXTSTYLE0
 70
     0
 40
0.0
 41
0.75
 50
0.0
 71
     0
 42
1.75
  3
TXT
  4

  0
STYLE
  5
2C0
330
3
100
AcDbSymbolTableRecord
100
AcDbTextStyleTableRecord
  2
SLDTEXTSTYLE1
 70
     0
 40
0.0
 41
0.6923076923
 50
0.0
 71
     0
 42
1.75
  3
TXT
  4

  0
ENDTAB
  0
TABLE
  2
VIEW
  5
6
330
0
100
AcDbSymbolTable
 70
     0
  0
ENDTAB
  0
TABLE
  2
UCS
  5
7
330
0
100
AcDbSymbolTable
 70
     0
  0
ENDTAB
  0
TABLE
  2
APPID
  5
9
330
0
100
AcDbSymbolTable
 70
     1
  0
APPID
  5
12
330
9
100
AcDbSymbolTableRecord
100
AcDbRegAppTableRecord
  2
ACAD
 70
     0
  0
ENDTAB
  0
TABLE
  2
DIMSTYLE
  5
A
330
0
100
AcDbSymbolTable
 70
     1
  0
DIMSTYLE
105
27
330
A
100
AcDbSymbolTableRecord
100
AcDbDimStyleTableRecord
  2
ISO-25
 70
     0
  3

  4

  5

  6

  7

 40
1.0
 41
2.5
 42
0.625
 43
3.75
 44
1.25
 45
0.0
 46
0.0
 47
0.0
 48
0.0
140
2.5
141
2.5
142
0.0
143
0.0393700787
144
1.0
145
0.0
146
1.0
147
0.625
 71
     0
 72
     0
 73
     0
 74
     0
 75
     0
 76
     0
 77
     1
 78
     8
170
     0
171
     3
172
     1
173
     0
174
     0
175
     0
176
     0
177
     0
178
     0
270
     2
271
     2
272
     2
273
     2
274
     3
340
11
275
     0
280
     0
281
     0
282
     0
283
     0
284
     8
285
     0
286
     0
287
     3
288
     0
  0
ENDTAB
  0
TABLE
  2
BLOCK_RECORD
  5
1
330
0
100
AcDbSymbolTable
 70
     1
  0
BLOCK_RECORD
  5
1F
330
1
100
AcDbSymbolTableRecord
100
AcDbBlockTableRecord
  2
*MODEL_SPACE
  0
BLOCK_RECORD
  5
1B
330
1
100
AcDbSymbolTableRecord
100
AcDbBlockTableRecord
  2
*PAPER_SPACE
  0
BLOCK_RECORD
  5
23
330
1
100
AcDbSymbolTableRecord
100
AcDbBlockTableRecord
  2
*PAPER_SPACE0
  0
ENDTAB
  0
ENDSEC
  0
SECTION
  2
BLOCKS
  0
BLOCK
  5
20
330
1F
100
AcDbEntity
  8
0
100
AcDbBlockBegin
  2
*MODEL_SPACE
 70
     0
 10
0.0
 20
0.0
 30
0.0
  3
*MODEL_SPACE
  1

  0
ENDBLK
  5
21
330
1F
100
AcDbEntity
  8
0
100
AcDbBlockEnd
  0
BLOCK
  5
1C
330
1B
100
AcDbEntity
 67
     1
  8
0
100
AcDbBlockBegin
  2
*PAPER_SPACE
 70
     0
 10
0.0
 20
0.0
 30
0.0
  3
*PAPER_SPACE
  1

  0
ENDBLK
  5
1D
330
1B
100
AcDbEntity
 67
     1
  8
0
100
AcDbBlockEnd
  0
BLOCK
  5
24
330
23
100
AcDbEntity
  8
0
100
AcDbBlockBegin
  2
*PAPER_SPACE0
 70
     0
 10
0.0
 20
0.0
 30
0.0
  3
*PAPER_SPACE0
  1
*PAPER_SPACE0
  0
ENDBLK
  5
25
330
23
100
AcDbEntity
  8
0
100
AcDbBlockEnd
  0
ENDSEC
  0
SECTION
  2
ENTITIES
  0
LINE
  5
73
330
1F
100
AcDbEntity
  8
SLD-0
  6
SLD-DURCHGEHEND
 62
     7
100
AcDbLine
 10
146.0
 20
102.5
 30
0.0
 11
146.0
 21
2.5
 31
0.0
  0
LINE
  5
74
330
1F
100
AcDbEntity
  8
SLD-0
  6
SLD-DURCHGEHEND
 62
     7
100
AcDbLine
 10
79.7
 20
17.375
 30
0.0
 11
87.065
 21
17.375
 31
0.0
  0
LINE
  5
75
330
1F
100
AcDbEntity
  8
SLD-0
  6
SLD-DURCHGEHEND
 62
     7
100
AcDbLine
 10
101.8
 20
17.375
 30
0.0
 11
146.0
 21
17.375
 31
0.0
  0
LINE
  5
76
330
1F
100
AcDbEntity
  8
SLD-0
  6
SLD-DURCHGEHEND
 62
     7
100
AcDbLine
 10
79.7
 20
4.625
 30
0.0
 11
146.0
 21
4.625
 31
0.0
  0
LINE
  5
77
330
1F
100
AcDbEntity
  8
SLD-0
  6
SLD-DURCHGEHEND
 62
     7
100
AcDbLine
 10
79.7
 20
17.375
 30
0.0
 11
79.7
 21
14.1875
 31
0.0
  0
LINE
  5
78
330
1F
100
AcDbEntity
  8
SLD-0
  6
SLD-DURCHGEHEND
 62
     7
100
AcDbLine
 10
146.0
 20
11.0
 30
0.0
 11
139.5
 21
11.0
 31
0.0
  0
LINE
  5
79
330
1F
100
AcDbEntity
  8
SLD-0
  6
SLD-DURCHGEHEND
 62
     7
100
AcDbLine
 10
94.43
 20
11.0
 30
0.0
 11
101.8
 21
11.0
 31
0.0
  0
LINE
  5
7A
330
1F
100
AcDbEntity
  8
SLD-0
  6
SLD-DURCHGEHEND
 62
     7
100
AcDbLine
 10
101.8
 20
17.375
 30
0.0
 11
101.8
 21
2.5
 31
0.0
  0
LINE
  5
7B
330
1F
100
AcDbEntity
  8
SLD-0
  6
SLD-DURCHGEHEND
 62
     7
100
AcDbLine
 10
123.9
 20
2.5
 30
0.0
 11
123.9
 21
4.625
 31
0.0
  0
LINE
  5
7C
330
1F
100
AcDbEntity
  8
SLD-0
  6
SLD-DURCHGEHEND
 62
     7
100
AcDbLine
 10
87.065
 20
17.375
 30
0.0
 11
94.43
 21
17.375
 31
0.0
  0
LINE
  5
7D
330
1F
100
AcDbEntity
  8
SLD-0
  6
SLD-DURCHGEHEND
 62
     7
100
AcDbLine
 10
139.5
 20
4.625
 30
0.0
 11
139.5
 21
7.7474846801
 31
0.0
  0
LINE
  5
7E
330
1F
100
AcDbEntity
  8
SLD-0
  6
SLD-DURCHGEHEND
 62
     7
100
AcDbLine
 10
94.43
 20
17.375
 30
0.0
 11
101.8
 21
17.375
 31
0.0
  0
LINE
  5
7F
330
1F
100
AcDbEntity
  8
SLD-0
  6
SLD-DURCHGEHEND
 62
     7
100
AcDbLine
 10
146.0
 20
7.7474846801
 30
0.0
 11
139.5
 21
7.7474846801
 31
0.0
  0
LINE
  5
80
330
1F
100
AcDbEntity
  8
SLD-0
  6
SLD-DURCHGEHEND
 62
     7
100
AcDbLine
 10
101.8
 20
11.0
 30
0.0
 11
139.5
 21
11.0
 31
0.0
  0
LINE
  5
81
330
1F
100
AcDbEntity
  8
SLD-0
  6
SLD-DURCHGEHEND
 62
     7
100
AcDbLine
 10
94.43
 20
17.375
 30
0.0
 11
94.43
 21
11.0
 31
0.0
  0
LINE
  5
82
330
1F
100
AcDbEntity
  8
SLD-0
  6
SLD-DURCHGEHEND
 62
     7
100
AcDbLine
 10
94.43
 20
11.0
 30
0.0
 11
87.065
 21
11.0
 31
0.0
  0
LINE
  5
83
330
1F
100
AcDbEntity
  8
SLD-0
  6
SLD-DURCHGEHEND
 62
     7
100
AcDbLine
 10
146.0
 20
102.5
 30
0.0
 11
2.5
 21
102.5
 31
0.0
  0
LINE
  5
84
330
1F
100
AcDbEntity
  8
SLD-0
  6
SLD-DURCHGEHEND
 62
     7
100
AcDbLine
 10
2.5
 20
102.5
 30
0.0
 11
2.5
 21
2.5
 31
0.0
  0
LINE
  5
85
330
1F
100
AcDbEntity
  8
SLD-0
  6
SLD-DURCHGEHEND
 62
     7
100
AcDbLine
 10
2.5
 20
2.5
 30
0.0
 11
146.0
 21
2.5
 31
0.0
  0
LINE
  5
86
330
1F
100
AcDbEntity
  8
SLD-0
  6
SLD-DURCHGEHEND
 62
     7
100
AcDbLine
 10
87.065
 20
11.0
 30
0.0
 11
87.065
 21
17.375
 31
0.0
  0
LINE
  5
87
330
1F
100
AcDbEntity
  8
SLD-0
  6
SLD-DURCHGEHEND
 62
     7
100
AcDbLine
 10
87.065
 20
11.0
 30
0.0
 11
79.7
 21
11.0
 31
0.0
  0
LINE
  5
88
330
1F
100
AcDbEntity
  8
SLD-0
  6
SLD-DURCHGEHEND
 62
     7
100
AcDbLine
 10
139.5
 20
7.7474846801
 30
0.0
 11
139.5
 21
11.0
 31
0.0
  0
LINE
  5
89
330
1F
100
AcDbEntity
  8
SLD-0
  6
SLD-DURCHGEHEND
 62
     7
100
AcDbLine
 10
79.7
 20
14.1875
 30
0.0
 11
87.065
 21
14.1875
 31
0.0
  0
LINE
  5
8A
330
1F
100
AcDbEntity
  8
SLD-0
  6
SLD-DURCHGEHEND
 62
     7
100
AcDbLine
 10
87.065
 20
14.1875
 30
0.0
 11
94.43
 21
14.1875
 31
0.0
  0
LINE
  5
8B
330
1F
100
AcDbEntity
  8
SLD-0
  6
SLD-DURCHGEHEND
 62
     7
100
AcDbLine
 10
94.43
 20
14.1875
 30
0.0
 11
101.8
 21
14.1875
 31
0.0
  0
LINE
  5
8C
330
1F
100
AcDbEntity
  8
SLD-0
  6
SLD-DURCHGEHEND
 62
     7
100
AcDbLine
 10
79.7
 20
11.0
 30
0.0
 11
79.7
 21
14.1875
 31
0.0
  0
LINE
  5
8D
330
1F
100
AcDbEntity
  8
SLD-0
  6
SLD-DURCHGEHEND
 62
     7
100
AcDbLine
 10
79.7
 20
11.0
 30
0.0
 11
79.7
 21
4.625
 31
0.0
  0
LINE
  5
8E
330
1F
100
AcDbEntity
  8
SLD-0
  6
SLD-DURCHGEHEND
 62
     7
100
AcDbLine
 10
79.7
 20
2.5
 30
0.0
 11
79.7
 21
4.625
 31
0.0
  0
LINE
  5
8F
330
1F
100
AcDbEntity
  8
SLD-0
  6
SLD-DURCHGEHEND
 62
     7
100
AcDbLine
 10
39.4884875246
 20
81.3891401274
 30
0.0
 11
39.9884875246
 21
81.3891401274
 31
0.0
  0
LINE
  5
90
330
1F
100
AcDbEntity
  8
SLD-0
  6
SLD-DURCHGEHEND
 62
     7
100
AcDbLine
 10
39.4884875246
 20
81.8891401274
 30
0.0
 11
39.4884875246
 21
81.3891401274
 31
0.0
  0
LINE
  5
91
330
1F
100
AcDbEntity
  8
SLD-0
  6
SLD-DURCHGEHEND
 62
     7
100
AcDbLine
 10
22.9884875246
 20
80.5391401274
 30
0.0
 11
22.9884875246
 21
81.3891401274
 31
0.0
  0
LINE
  5
92
330
1F
100
AcDbEntity
  8
SLD-0
  6
SLD-DURCHGEHEND
 62
     7
100
AcDbLine
 10
22.9884875246
 20
81.3891401274
 30
0.0
 11
23.4884875246
 21
81.3891401274
 31
0.0
  0
LINE
  5
93
330
1F
100
AcDbEntity
  8
SLD-0
  6
SLD-DURCHGEHEND
 62
     7
100
AcDbLine
 10
23.4884875246
 20
81.3891401274
 30
0.0
 11
23.4884875246
 21
80.5391401274
 31
0.0
  0
LINE
  5
94
330
1F
100
AcDbEntity
  8
SLD-0
  6
SLD-DURCHGEHEND
 62
     7
100
AcDbLine
 10
22.9884875246
 20
80.5391401274
 30
0.0
 11
23.4884875246
 21
80.5391401274
 31
0.0
  0
LINE
  5
95
330
1F
100
AcDbEntity
  8
SLD-0
  6
SLD-DURCHGEHEND
 62
     7
100
AcDbLine
 10
39.4884875246
 20
80.5391401274
 30
0.0
 11
39.4884875246
 21
81.3891401274
 31
0.0
  0
LINE
  5
96
330
1F
100
AcDbEntity
  8
SLD-0
  6
SLD-DURCHGEHEND
 62
     7
100
AcDbLine
 10
39.9884875246
 20
81.3891401274
 30
0.0
 11
39.9884875246
 21
80.0391401274
 31
0.0
  0
LINE
  5
97
330
1F
100
AcDbEntity
  8
SLD-0
  6
SLD-DURCHGEHEND
 62
     7
100
AcDbLine
 10
39.4884875246
 20
80.5391401274
 30
0.0
 11
39.9884875246
 21
80.0391401274
 31
0.0
  0
LINE
  5
98
330
1F
100
AcDbEntity
  8
SLD-0
  6
SLD-DURCHGEHEND
 62
     7
100
AcDbLine
 10
23.4884875246
 20
80.5391401274
 30
0.0
 11
39.4884875246
 21
80.5391401274
 31
0.0
  0
LINE
  5
99
330
1F
100
AcDbEntity
  8
SLD-0
  6
SLD-DURCHGEHEND
 62
     7
100
AcDbLine
 10
39.9884875246
 20
80.0391401274
 30
0.0
 11
23.4884875246
 21
80.0391401274
 31
0.0
  0
LINE
  5
9A
330
1F
100
AcDbEntity
  8
SLD-0
  6
SLD-DURCHGEHEND
 62
     7
100
AcDbLine
 10
23.4884875246
 20
80.5391401274
 30
0.0
 11
23.4884875246
 21
80.0391401274
 31
0.0
  0
LINE
  5
9B
330
1F
100
AcDbEntity
  8
SLD-0
  6
SLD-DURCHGEHEND
 62
     7
100
AcDbLine
 10
23.4884875246
 20
81.8891401274
 30
0.0
 11
23.4884875246
 21
81.3891401274
 31
0.0
  0
LINE
  5
9C
330
1F
100
AcDbEntity
  8
SLD-0
  6
SLD-DURCHGEHEND
 62
     7
100
AcDbLine
 10
23.4884875246
 20
81.8891401274
 30
0.0
 11
39.4884875246
 21
81.8891401274
 31
0.0
  0
LINE
  5
9D
330
1F
100
AcDbEntity
  8
SLD-0
  6
SLD-DURCHGEHEND
 62
     7
100
AcDbLine
 10
39.4884875246
 20
81.3891401274
 30
0.0
 11
23.4884875246
 21
81.3891401274
 31
0.0
  0
LINE
  5
9E
330
1F
100
AcDbEntity
  8
SLD-0
  6
SLD-DURCHGEHEND
 62
     7
100
AcDbLine
 10
23.4884875246
 20
80.0391401274
 30
0.0
 11
23.4884875246
 21
79.5391401274
 31
0.0
  0
LINE
  5
9F
330
1F
100
AcDbEntity
  8
SLD-0
  6
SLD-DURCHGEHEND
 62
     7
100
AcDbLine
 10
22.9884875246
 20
80.5391401274
 30
0.0
 11
22.4884875246
 21
80.5391401274
 31
0.0
  0
LINE
  5
A0
330
1F
100
AcDbEntity
  8
SLD-0
  6
SLD-DURCHGEHEND
 62
     7
100
AcDbLine
 10
22.4884875246
 20
81.8891401274
 30
0.0
 11
22.4884875246
 21
81.3891401274
 31
0.0
  0
LINE
  5
A1
330
1F
100
AcDbEntity
  8
SLD-0
  6
SLD-DURCHGEHEND
 62
     7
100
AcDbLine
 10
22.9884875246
 20
81.3891401274
 30
0.0
 11
22.4884875246
 21
81.3891401274
 31
0.0
  0
LINE
  5
A2
330
1F
100
AcDbEntity
  8
SLD-0
  6
SLD-DURCHGEHEND
 62
     7
100
AcDbLine
 10
23.4884875246
 20
81.8891401274
 30
0.0
 11
22.4884875246
 21
81.8891401274
 31
0.0
  0
LINE
  5
A3
330
1F
100
AcDbEntity
  8
SLD-0
  6
SLD-DURCHGEHEND
 62
     7
100
AcDbLine
 10
39.9884875246
 20
81.3891401274
 30
0.0
 11
40.4884875246
 21
81.3891401274
 31
0.0
  0
LINE
  5
A4
330
1F
100
AcDbEntity
  8
SLD-0
  6
SLD-DURCHGEHEND
 62
     7
100
AcDbLine
 10
40.4884875246
 20
81.3891401274
 30
0.0
 11
40.4884875246
 21
79.5391401274
 31
0.0
  0
LINE
  5
A5
330
1F
100
AcDbEntity
  8
SLD-0
  6
SLD-DURCHGEHEND
 62
     7
100
AcDbLine
 10
39.9884875246
 20
80.0391401274
 30
0.0
 11
40.4884875246
 21
79.5391401274
 31
0.0
  0
LINE
  5
A6
330
1F
100
AcDbEntity
  8
SLD-0
  6
SLD-DURCHGEHEND
 62
     7
100
AcDbLine
 10
40.4884875246
 20
79.5391401274
 30
0.0
 11
23.4884875246
 21
79.5391401274
 31
0.0
  0
LINE
  5
A7
330
1F
100
AcDbEntity
  8
SLD-0
  6
SLD-DURCHGEHEND
 62
     7
100
AcDbLine
 10
40.4884875246
 20
81.8891401274
 30
0.0
 11
40.4884875246
 21
81.3891401274
 31
0.0
  0
LINE
  5
A8
330
1F
100
AcDbEntity
  8
SLD-0
  6
SLD-DURCHGEHEND
 62
     7
100
AcDbLine
 10
40.4884875246
 20
81.8891401274
 30
0.0
 11
39.4884875246
 21
81.8891401274
 31
0.0
  0
LINE
  5
A9
330
1F
100
AcDbEntity
  8
SLD-0
  6
SLD-DURCHGEHEND
 62
     7
100
AcDbLine
 10
22.4884875246
 20
80.5391401274
 30
0.0
 11
22.4884875246
 21
81.3891401274
 31
0.0
  0
LINE
  5
AA
330
1F
100
AcDbEntity
  8
SLD-0
  6
SLD-DURCHGEHEND
 62
     7
100
AcDbLine
 10
51.4884875246
 20
82.8891401274
 30
0.0
 11
51.9884875246
 21
82.8891401274
 31
0.0
  0
LINE
  5
AB
330
1F
100
AcDbEntity
  8
SLD-0
  6
SLD-DURCHGEHEND
 62
     7
100
AcDbLine
 10
51.4884875246
 20
82.8891401274
 30
0.0
 11
51.4884875246
 21
83.3891401274
 31
0.0
  0
LINE
  5
AC
330
1F
100
AcDbEntity
  8
SLD-0
  6
SLD-DURCHGEHEND
 62
     7
100
AcDbLine
 10
50.6384875246
 20
82.8891401274
 30
0.0
 11
50.6384875246
 21
83.3891401274
 31
0.0
  0
LINE
  5
AD
330
1F
100
AcDbEntity
  8
SLD-0
  6
SLD-DURCHGEHEND
 62
     7
100
AcDbLine
 10
50.6384875246
 20
82.8891401274
 30
0.0
 11
50.1384875246
 21
82.8891401274
 31
0.0
  0
LINE
  5
AE
330
1F
100
AcDbEntity
  8
SLD-0
  6
SLD-DURCHGEHEND
 62
     7
100
AcDbLine
 10
51.4884875246
 20
80.1391401274
 30
0.0
 11
51.4884875246
 21
82.8891401274
 31
0.0
  0
LINE
  5
AF
330
1F
100
AcDbEntity
  8
SLD-0
  6
SLD-DURCHGEHEND
 62
     7
100
AcDbLine
 10
51.9884875246
 20
82.8891401274
 30
0.0
 11
51.9884875246
 21
80.1391401274
 31
0.0
  0
LINE
  5
B0
330
1F
100
AcDbEntity
  8
SLD-0
  6
SLD-DURCHGEHEND
 62
     7
100
AcDbLine
 10
51.9884875246
 20
80.1391401274
 30
0.0
 11
51.4884875246
 21
80.1391401274
 31
0.0
  0
LINE
  5
B1
330
1F
100
AcDbEntity
  8
SLD-0
  6
SLD-DURCHGEHEND
 62
     7
100
AcDbLine
 10
49.6384875246
 20
81.8891401274
 30
0.0
 11
49.6384875246
 21
81.3891401274
 31
0.0
  0
LINE
  5
B2
330
1F
100
AcDbEntity
  8
SLD-0
  6
SLD-DURCHGEHEND
 62
     7
100
AcDbLine
 10
50.6384875246
 20
82.3891401274
 30
0.0
 11
50.1384875246
 21
82.3891401274
 31
0.0
  0
LINE
  5
B3
330
1F
100
AcDbEntity
  8
SLD-0
  6
SLD-DURCHGEHEND
 62
     7
100
AcDbLine
 10
22.4884875246
 20
81.3891401274
 30
0.0
 11
12.3284153363
 21
81.3891401274
 31
0.0
  0
LINE
  5
B4
330
1F
100
AcDbEntity
  8
SLD-0
  6
SLD-DURCHGEHEND
 62
     7
100
AcDbLine
 10
49.6384875246
 20
81.3891401274
 30
0.0
 11
40.4884875246
 21
81.3891401274
 31
0.0
  0
LINE
  5
B5
330
1F
100
AcDbEntity
  8
SLD-0
  6
SLD-DURCHGEHEND
 62
     7
100
AcDbLine
 10
50.6384875246
 20
82.8891401274
 30
0.0
 11
50.6384875246
 21
82.3891401274
 31
0.0
  0
LINE
  5
B6
330
1F
100
AcDbEntity
  8
SLD-0
  6
SLD-DURCHGEHEND
 62
     7
100
AcDbLine
 10
51.4884875246
 20
82.8891401274
 30
0.0
 11
50.6384875246
 21
82.8891401274
 31
0.0
  0
LINE
  5
B7
330
1F
100
AcDbEntity
  8
SLD-0
  6
SLD-DURCHGEHEND
 62
     7
100
AcDbLine
 10
51.4884875246
 20
80.1391401274
 30
0.0
 11
47.9884875246
 21
80.1391401274
 31
0.0
  0
LINE
  5
B8
330
1F
100
AcDbEntity
  8
SLD-0
  6
SLD-DURCHGEHEND
 62
     7
100
AcDbLine
 10
47.9884875246
 20
77.1391401274
 30
0.0
 11
25.4884875246
 21
77.1391401274
 31
0.0
  0
LINE
  5
B9
330
1F
100
AcDbEntity
  8
SLD-0
  6
SLD-DURCHGEHEND
 62
     7
100
AcDbLine
 10
47.9884875246
 20
80.1391401274
 30
0.0
 11
47.9884875246
 21
77.1391401274
 31
0.0
  0
LINE
  5
BA
330
1F
100
AcDbEntity
  8
SLD-0
  6
SLD-DURCHGEHEND
 62
     7
100
AcDbLine
 10
40.4884875246
 20
81.8891401274
 30
0.0
 11
49.6384875246
 21
81.8891401274
 31
0.0
  0
LINE
  5
BB
330
1F
100
AcDbEntity
  8
SLD-0
  6
SLD-DURCHGEHEND
 62
     7
100
AcDbLine
 10
50.1384875246
 20
82.3891401274
 30
0.0
 11
50.1384875246
 21
82.8891401274
 31
0.0
  0
LINE
  5
BC
330
1F
100
AcDbEntity
  8
SLD-0
  6
SLD-DURCHGEHEND
 62
     7
100
AcDbLine
 10
11.6884875246
 20
81.8680962639
 30
0.0
 11
11.6884875246
 21
81.8891401274
 31
0.0
  0
LINE
  5
BD
330
1F
100
AcDbEntity
  8
SLD-0
  6
SLD-DURCHGEHEND
 62
     7
100
AcDbLine
 10
11.6884875246
 20
81.8891401274
 30
0.0
 11
22.4884875246
 21
81.8891401274
 31
0.0
  0
LINE
  5
BE
330
1F
100
AcDbEntity
  8
SLD-0
  6
SLD-DURCHGEHEND
 62
     7
100
AcDbLine
 10
50.6384875246
 20
83.3891401274
 30
0.0
 11
51.4884875246
 21
83.3891401274
 31
0.0
  0
LINE
  5
BF
330
1F
100
AcDbEntity
  8
SLD-0
  6
SLD-DURCHGEHEND
 62
     7
100
AcDbLine
 10
24.6384875246
 20
82.8891401274
 30
0.0
 11
24.6384875246
 21
81.8891401274
 31
0.0
  0
LINE
  5
C0
330
1F
100
AcDbEntity
  8
SLD-0
  6
SLD-DURCHGEHEND
 62
     7
100
AcDbLine
 10
24.6384875246
 20
82.8891401274
 30
0.0
 11
44.6384875246
 21
82.8891401274
 31
0.0
  0
LINE
  5
C1
330
1F
100
AcDbEntity
  8
SLD-0
  6
SLD-DURCHGEHEND
 62
     7
100
AcDbLine
 10
44.6384875246
 20
82.8891401274
 30
0.0
 11
44.6384875246
 21
81.8891401274
 31
0.0
  0
LINE
  5
C2
330
1F
100
AcDbEntity
  8
SLD-0
  6
SLD-DURCHGEHEND
 62
     7
100
AcDbLine
 10
80.0175496688
 20
91.9247595118
 30
0.0
 11
63.5175496689
 21
91.9247595118
 31
0.0
  0
LINE
  5
C3
330
1F
100
AcDbEntity
  8
SLD-0
  6
SLD-DURCHGEHEND
 62
     7
100
AcDbLine
 10
63.5175496689
 20
91.9247595118
 30
0.0
 11
63.5175496689
 21
92.4247595118
 31
0.0
  0
LINE
  5
C4
330
1F
100
AcDbEntity
  8
SLD-0
  6
SLD-DURCHGEHEND
 62
     7
100
AcDbLine
 10
63.5175496689
 20
92.4247595118
 30
0.0
 11
80.0175496688
 21
92.4247595118
 31
0.0
  0
LINE
  5
C5
330
1F
100
AcDbEntity
  8
SLD-0
  6
SLD-DURCHGEHEND
 62
     7
100
AcDbLine
 10
80.0175496688
 20
91.9247595118
 30
0.0
 11
80.0175496688
 21
92.4247595118
 31
0.0
  0
LINE
  5
C6
330
1F
100
AcDbEntity
  8
SLD-0
  6
SLD-DURCHGEHEND
 62
     7
100
AcDbLine
 10
63.5175496689
 20
92.4247595118
 30
0.0
 11
63.0175496689
 21
92.4247595118
 31
0.0
  0
LINE
  5
C7
330
1F
100
AcDbEntity
  8
SLD-0
  6
SLD-DURCHGEHEND
 62
     7
100
AcDbLine
 10
80.0175496688
 20
93.2747595118
 30
0.0
 11
63.5175496689
 21
93.2747595118
 31
0.0
  0
LINE
  5
C8
330
1F
100
AcDbEntity
  8
SLD-0
  6
SLD-DURCHGEHEND
 62
     7
100
AcDbLine
 10
63.5175496689
 20
93.2747595118
 30
0.0
 11
63.5175496689
 21
93.7747595118
 31
0.0
  0
LINE
  5
C9
330
1F
100
AcDbEntity
  8
SLD-0
  6
SLD-DURCHGEHEND
 62
     7
100
AcDbLine
 10
63.5175496689
 20
93.7747595118
 30
0.0
 11
80.0175496688
 21
93.7747595118
 31
0.0
  0
LINE
  5
CA
330
1F
100
AcDbEntity
  8
SLD-0
  6
SLD-DURCHGEHEND
 62
     7
100
AcDbLine
 10
80.0175496688
 20
93.2747595118
 30
0.0
 11
80.0175496688
 21
93.7747595118
 31
0.0
  0
LINE
  5
CB
330
1F
100
AcDbEntity
  8
SLD-0
  6
SLD-DURCHGEHEND
 62
     7
100
AcDbLine
 10
80.5175496688
 20
93.2747595118
 30
0.0
 11
80.5175496688
 21
92.4247595118
 31
0.0
  0
LINE
  5
CC
330
1F
100
AcDbEntity
  8
SLD-0
  6
SLD-DURCHGEHEND
 62
     7
100
AcDbLine
 10
80.5175496688
 20
92.4247595118
 30
0.0
 11
80.0175496688
 21
92.4247595118
 31
0.0
  0
LINE
  5
CD
330
1F
100
AcDbEntity
  8
SLD-0
  6
SLD-DURCHGEHEND
 62
     7
100
AcDbLine
 10
80.0175496688
 20
92.4247595118
 30
0.0
 11
80.0175496688
 21
93.2747595118
 31
0.0
  0
LINE
  5
CE
330
1F
100
AcDbEntity
  8
SLD-0
  6
SLD-DURCHGEHEND
 62
     7
100
AcDbLine
 10
80.5175496688
 20
93.2747595118
 30
0.0
 11
80.0175496688
 21
93.2747595118
 31
0.0
  0
LINE
  5
CF
330
1F
100
AcDbEntity
  8
SLD-0
  6
SLD-DURCHGEHEND
 62
     7
100
AcDbLine
 10
63.5175496689
 20
93.2747595118
 30
0.0
 11
63.5175496689
 21
92.4247595118
 31
0.0
  0
LINE
  5
D0
330
1F
100
AcDbEntity
  8
SLD-0
  6
SLD-DURCHGEHEND
 62
     7
100
AcDbLine
 10
63.0175496689
 20
92.4247595118
 30
0.0
 11
63.0175496689
 21
93.2747595118
 31
0.0
  0
LINE
  5
D1
330
1F
100
AcDbEntity
  8
SLD-0
  6
SLD-DURCHGEHEND
 62
     7
100
AcDbLine
 10
63.5175496689
 20
93.2747595118
 30
0.0
 11
63.0175496689
 21
93.2747595118
 31
0.0
  0
LINE
  5
D2
330
1F
100
AcDbEntity
  8
SLD-0
  6
SLD-DURCHGEHEND
 62
     7
100
AcDbLine
 10
80.0175496688
 20
91.4247595118
 30
0.0
 11
63.5175496689
 21
91.4247595118
 31
0.0
  0
LINE
  5
D3
330
1F
100
AcDbEntity
  8
SLD-0
  6
SLD-DURCHGEHEND
 62
     7
100
AcDbLine
 10
63.5175496689
 20
91.4247595118
 30
0.0
 11
63.5175496689
 21
91.9247595118
 31
0.0
  0
LINE
  5
D4
330
1F
100
AcDbEntity
  8
SLD-0
  6
SLD-DURCHGEHEND
 62
     7
100
AcDbLine
 10
80.0175496688
 20
91.4247595118
 30
0.0
 11
80.0175496688
 21
91.9247595118
 31
0.0
  0
LINE
  5
D5
330
1F
100
AcDbEntity
  8
SLD-0
  6
SLD-DURCHGEHEND
 62
     7
100
AcDbLine
 10
63.5175496689
 20
91.4247595118
 30
0.0
 11
63.0175496689
 21
91.4247595118
 31
0.0
  0
LINE
  5
D6
330
1F
100
AcDbEntity
  8
SLD-0
  6
SLD-DURCHGEHEND
 62
     7
100
AcDbLine
 10
63.0175496689
 20
92.4247595118
 30
0.0
 11
63.0175496689
 21
91.4247595118
 31
0.0
  0
LINE
  5
D7
330
1F
100
AcDbEntity
  8
SLD-0
  6
SLD-DURCHGEHEND
 62
     7
100
AcDbLine
 10
80.0175496688
 20
91.4247595118
 30
0.0
 11
80.5175496688
 21
91.4247595118
 31
0.0
  0
LINE
  5
D8
330
1F
100
AcDbEntity
  8
SLD-0
  6
SLD-DURCHGEHEND
 62
     7
100
AcDbLine
 10
80.5175496688
 20
91.4247595118
 30
0.0
 11
80.5175496688
 21
92.4247595118
 31
0.0
  0
LINE
  5
D9
330
1F
100
AcDbEntity
  8
SLD-0
  6
SLD-DURCHGEHEND
 62
     7
100
AcDbLine
 10
71.5431906945
 20
63.0324518195
 30
0.0
 11
71.5431906945
 21
63.4412058259
 31
0.0
  0
LINE
  5
DA
330
1F
100
AcDbEntity
  8
SLD-0
  6
SLD-DURCHGEHEND
 62
     7
100
AcDbLine
 10
71.1842163356
 20
63.0324518195
 30
0.0
 11
71.5431906945
 21
63.0324518195
 31
0.0
  0
LINE
  5
DB
330
1F
100
AcDbEntity
  8
SLD-0
  6
SLD-DURCHGEHEND
 62
     7
100
AcDbLine
 10
71.1842163356
 20
62.7183492554
 30
0.0
 11
71.1842163356
 21
63.0324518195
 31
0.0
  0
LINE
  5
DC
330
1F
100
AcDbEntity
  8
SLD-0
  6
SLD-DURCHGEHEND
 62
     7
100
AcDbLine
 10
71.5431906945
 20
62.7183492554
 30
0.0
 11
71.1842163356
 21
62.7183492554
 31
0.0
  0
LINE
  5
DD
330
1F
100
AcDbEntity
  8
SLD-0
  6
SLD-DURCHGEHEND
 62
     7
100
AcDbLine
 10
71.5431906945
 20
60.4747595118
 30
0.0
 11
71.5431906945
 21
62.7183492554
 31
0.0
  0
LINE
  5
DE
330
1F
100
AcDbEntity
  8
SLD-0
  6
SLD-DURCHGEHEND
 62
     7
100
AcDbLine
 10
71.8572932586
 20
60.4747595118
 30
0.0
 11
71.5431906945
 21
60.4747595118
 31
0.0
  0
LINE
  5
DF
330
1F
100
AcDbEntity
  8
SLD-0
  6
SLD-DURCHGEHEND
 62
     7
100
AcDbLine
 10
71.8586955022
 20
62.7183492554
 30
0.0
 11
71.8572932586
 21
60.4747595118
 31
0.0
  0
LINE
  5
E0
330
1F
100
AcDbEntity
  8
SLD-0
  6
SLD-DURCHGEHEND
 62
     7
100
AcDbLine
 10
72.3957547971
 20
62.7183492554
 30
0.0
 11
71.8586955022
 21
62.7183492554
 31
0.0
  0
LINE
  5
E1
330
1F
100
AcDbEntity
  8
SLD-0
  6
SLD-DURCHGEHEND
 62
     7
100
AcDbLine
 10
72.3957547971
 20
63.0324518195
 30
0.0
 11
72.3957547971
 21
62.7183492554
 31
0.0
  0
LINE
  5
E2
330
1F
100
AcDbEntity
  8
SLD-0
  6
SLD-DURCHGEHEND
 62
     7
100
AcDbLine
 10
71.859396624
 20
63.0324518195
 30
0.0
 11
72.3957547971
 21
63.0324518195
 31
0.0
  0
LINE
  5
E3
330
1F
100
AcDbEntity
  8
SLD-0
  6
SLD-DURCHGEHEND
 62
     7
100
AcDbLine
 10
71.859396624
 20
63.3872194477
 30
0.0
 11
71.859396624
 21
63.0324518195
 31
0.0
  0
LINE
  5
E4
330
1F
100
AcDbEntity
  8
SLD-0
  6
SLD-DURCHGEHEND
 62
     7
100
AcDbLine
 10
72.4406265919
 20
64.0434694477
 30
0.0
 11
72.4406265919
 21
63.7167466912
 31
0.0
  0
LINE
  5
E5
330
1F
100
AcDbEntity
  8
SLD-0
  6
SLD-DURCHGEHEND
 62
     7
100
AcDbLine
 10
62.0175496689
 20
65.2747595118
 30
0.0
 11
62.5175496689
 21
65.2747595118
 31
0.0
  0
LINE
  5
E6
330
1F
100
AcDbEntity
  8
SLD-0
  6
SLD-DURCHGEHEND
 62
     7
100
AcDbLine
 10
62.0175496689
 20
81.2747595118
 30
0.0
 11
62.0175496689
 21
65.2747595118
 31
0.0
  0
LINE
  5
E7
330
1F
100
AcDbEntity
  8
SLD-0
  6
SLD-DURCHGEHEND
 62
     7
100
AcDbLine
 10
62.5175496689
 20
81.2747595118
 30
0.0
 11
62.0175496689
 21
81.2747595118
 31
0.0
  0
LINE
  5
E8
330
1F
100
AcDbEntity
  8
SLD-0
  6
SLD-DURCHGEHEND
 62
     7
100
AcDbLine
 10
63.5175496689
 20
91.4247595118
 30
0.0
 11
63.5175496689
 21
82.2747595118
 31
0.0
  0
LINE
  5
E9
330
1F
100
AcDbEntity
  8
SLD-0
  6
SLD-DURCHGEHEND
 62
     7
100
AcDbLine
 10
80.0175496688
 20
82.2747595118
 30
0.0
 11
80.0175496688
 21
91.4247595118
 31
0.0
  0
LINE
  5
EA
330
1F
100
AcDbEntity
  8
SLD-0
  6
SLD-DURCHGEHEND
 62
     7
100
AcDbLine
 10
81.5175496689
 20
81.2747595118
 30
0.0
 11
81.0175496688
 21
81.2747595118
 31
0.0
  0
LINE
  5
EB
330
1F
100
AcDbEntity
  8
SLD-0
  6
SLD-DURCHGEHEND
 62
     7
100
AcDbLine
 10
81.5175496689
 20
65.2747595118
 30
0.0
 11
81.5175496689
 21
81.2747595118
 31
0.0
  0
LINE
  5
EC
330
1F
100
AcDbEntity
  8
SLD-0
  6
SLD-DURCHGEHEND
 62
     7
100
AcDbLine
 10
81.0175496689
 20
65.2747595118
 30
0.0
 11
81.5175496689
 21
65.2747595118
 31
0.0
  0
LINE
  5
ED
330
1F
100
AcDbEntity
  8
SLD-0
  6
SLD-DURCHGEHEND
 62
     7
100
AcDbLine
 10
80.0175496688
 20
53.4747595118
 30
0.0
 11
80.0175496688
 21
64.2747595118
 31
0.0
  0
LINE
  5
EE
330
1F
100
AcDbEntity
  8
SLD-0
  6
SLD-DURCHGEHEND
 62
     7
100
AcDbLine
 10
80.0175496688
 20
53.4747595118
 30
0.0
 11
63.5175496689
 21
53.4747595118
 31
0.0
  0
LINE
  5
EF
330
1F
100
AcDbEntity
  8
SLD-0
  6
SLD-DURCHGEHEND
 62
     7
100
AcDbLine
 10
63.5175496689
 20
64.2747595118
 30
0.0
 11
63.5175496689
 21
53.4747595118
 31
0.0
  0
LINE
  5
F0
330
1F
100
AcDbEntity
  8
SLD-0
  6
SLD-DURCHGEHEND
 62
     7
100
AcDbLine
 10
81.5175496689
 20
65.2747595118
 30
0.0
 11
81.5175496689
 21
64.7747595118
 31
0.0
  0
LINE
  5
F1
330
1F
100
AcDbEntity
  8
SLD-0
  6
SLD-DURCHGEHEND
 62
     7
100
AcDbLine
 10
81.5175496689
 20
64.7747595118
 30
0.0
 11
81.0175496689
 21
64.7747595118
 31
0.0
  0
LINE
  5
F2
330
1F
100
AcDbEntity
  8
SLD-0
  6
SLD-DURCHGEHEND
 62
     7
100
AcDbLine
 10
81.0175496689
 20
65.2747595118
 30
0.0
 11
81.0175496689
 21
64.7747595118
 31
0.0
  0
LINE
  5
F3
330
1F
100
AcDbEntity
  8
SLD-0
  6
SLD-DURCHGEHEND
 62
     7
100
AcDbLine
 10
62.0175496689
 20
65.2747595118
 30
0.0
 11
62.0175496689
 21
64.7747595118
 31
0.0
  0
LINE
  5
F4
330
1F
100
AcDbEntity
  8
SLD-0
  6
SLD-DURCHGEHEND
 62
     7
100
AcDbLine
 10
62.0175496689
 20
65.2747595118
 30
0.0
 11
61.5175496688
 21
65.2747595118
 31
0.0
  0
LINE
  5
F5
330
1F
100
AcDbEntity
  8
SLD-0
  6
SLD-DURCHGEHEND
 62
     7
100
AcDbLine
 10
63.0175496689
 20
64.2747595118
 30
0.0
 11
63.5175496689
 21
64.2747595118
 31
0.0
  0
LINE
  5
F6
330
1F
100
AcDbEntity
  8
SLD-0
  6
SLD-DURCHGEHEND
 62
     7
100
AcDbLine
 10
63.5175496689
 20
53.4747595118
 30
0.0
 11
63.3740191169
 21
53.4747595118
 31
0.0
  0
LINE
  5
F7
330
1F
100
AcDbEntity
  8
SLD-0
  6
SLD-DURCHGEHEND
 62
     7
100
AcDbLine
 10
63.0175496689
 20
54.1146873235
 30
0.0
 11
63.0175496689
 21
64.2747595118
 31
0.0
  0
LINE
  5
F8
330
1F
100
AcDbEntity
  8
SLD-0
  6
SLD-DURCHGEHEND
 62
     7
100
AcDbLine
 10
80.1610802209
 20
53.4747595118
 30
0.0
 11
80.0175496688
 21
53.4747595118
 31
0.0
  0
LINE
  5
F9
330
1F
100
AcDbEntity
  8
SLD-0
  6
SLD-DURCHGEHEND
 62
     7
100
AcDbLine
 10
80.0175496688
 20
64.2747595118
 30
0.0
 11
80.5175496689
 21
64.2747595118
 31
0.0
  0
LINE
  5
FA
330
1F
100
AcDbEntity
  8
SLD-0
  6
SLD-DURCHGEHEND
 62
     7
100
AcDbLine
 10
80.5175496689
 20
64.2747595118
 30
0.0
 11
80.5175496689
 21
54.1146873235
 31
0.0
  0
LINE
  5
FB
330
1F
100
AcDbEntity
  8
SLD-0
  6
SLD-DURCHGEHEND
 62
     7
100
AcDbLine
 10
81.5175496689
 20
65.2747595118
 30
0.0
 11
82.0175496689
 21
65.2747595118
 31
0.0
  0
LINE
  5
FC
330
1F
100
AcDbEntity
  8
SLD-0
  6
SLD-DURCHGEHEND
 62
     7
100
AcDbLine
 10
61.5175496688
 20
65.2747595118
 30
0.0
 11
61.5175496689
 21
81.7747595118
 31
0.0
  0
LINE
  5
FD
330
1F
100
AcDbEntity
  8
SLD-0
  6
SLD-DURCHGEHEND
 62
     7
100
AcDbLine
 10
62.0175496689
 20
81.2747595118
 30
0.0
 11
61.5175496689
 21
81.7747595118
 31
0.0
  0
LINE
  5
FE
330
1F
100
AcDbEntity
  8
SLD-0
  6
SLD-DURCHGEHEND
 62
     7
100
AcDbLine
 10
62.5175496689
 20
65.2747595118
 30
0.0
 11
62.5175496689
 21
64.7747595118
 31
0.0
  0
LINE
  5
FF
330
1F
100
AcDbEntity
  8
SLD-0
  6
SLD-DURCHGEHEND
 62
     7
100
AcDbLine
 10
62.5175496689
 20
64.7747595118
 30
0.0
 11
62.0175496689
 21
64.7747595118
 31
0.0
  0
LINE
  5
100
330
1F
100
AcDbEntity
  8
SLD-0
  6
SLD-DURCHGEHEND
 62
     7
100
AcDbLine
 10
81.5175496689
 20
81.2747595118
 30
0.0
 11
82.0175496689
 21
81.2747595118
 31
0.0
  0
LINE
  5
101
330
1F
100
AcDbEntity
  8
SLD-0
  6
SLD-DURCHGEHEND
 62
     7
100
AcDbLine
 10
82.0175496689
 20
81.2747595118
 30
0.0
 11
82.0175496689
 21
65.2747595118
 31
0.0
  0
LINE
  5
102
330
1F
100
AcDbEntity
  8
SLD-0
  6
SLD-DURCHGEHEND
 62
     7
100
AcDbLine
 10
63.5175496689
 20
82.2747595118
 30
0.0
 11
63.0175496689
 21
82.2747595118
 31
0.0
  0
LINE
  5
103
330
1F
100
AcDbEntity
  8
SLD-0
  6
SLD-DURCHGEHEND
 62
     7
100
AcDbLine
 10
62.5175496689
 20
81.2747595118
 30
0.0
 11
62.5175496689
 21
81.7747595118
 31
0.0
  0
LINE
  5
104
330
1F
100
AcDbEntity
  8
SLD-0
  6
SLD-DURCHGEHEND
 62
     7
100
AcDbLine
 10
81.0175496688
 20
81.2747595118
 30
0.0
 11
81.0175496688
 21
81.7747595118
 31
0.0
  0
LINE
  5
105
330
1F
100
AcDbEntity
  8
SLD-0
  6
SLD-DURCHGEHEND
 62
     7
100
AcDbLine
 10
81.0175496688
 20
81.7747595118
 30
0.0
 11
81.5175496689
 21
81.7747595118
 31
0.0
  0
LINE
  5
106
330
1F
100
AcDbEntity
  8
SLD-0
  6
SLD-DURCHGEHEND
 62
     7
100
AcDbLine
 10
81.5175496689
 20
81.2747595118
 30
0.0
 11
81.5175496689
 21
81.7747595118
 31
0.0
  0
LINE
  5
107
330
1F
100
AcDbEntity
  8
SLD-0
  6
SLD-DURCHGEHEND
 62
     7
100
AcDbLine
 10
61.5175496689
 20
81.7747595118
 30
0.0
 11
62.5175496689
 21
81.7747595118
 31
0.0
  0
LINE
  5
108
330
1F
100
AcDbEntity
  8
SLD-0
  6
SLD-DURCHGEHEND
 62
     7
100
AcDbLine
 10
80.0175496688
 20
82.2747595118
 30
0.0
 11
80.5175496688
 21
82.2747595118
 31
0.0
  0
LINE
  5
109
330
1F
100
AcDbEntity
  8
SLD-0
  6
SLD-DURCHGEHEND
 62
     7
100
AcDbLine
 10
80.5175496688
 20
91.4247595118
 30
0.0
 11
80.5175496688
 21
82.2747595118
 31
0.0
  0
LINE
  5
10A
330
1F
100
AcDbEntity
  8
SLD-0
  6
SLD-DURCHGEHEND
 62
     7
100
AcDbLine
 10
63.0175496689
 20
82.2747595118
 30
0.0
 11
63.0175496689
 21
91.4247595118
 31
0.0
  0
LINE
  5
10B
330
1F
100
AcDbEntity
  8
SLD-0
  6
SLD-DURCHGEHEND
 62
     7
100
AcDbLine
 10
76.8675496689
 20
66.4247595118
 30
0.0
 11
76.8675496689
 21
86.4247595118
 31
0.0
  0
LINE
  5
10C
330
1F
100
AcDbEntity
  8
SLD-0
  6
SLD-DURCHGEHEND
 62
     7
100
AcDbLine
 10
66.6675496689
 20
66.4247595118
 30
0.0
 11
76.8675496689
 21
66.4247595118
 31
0.0
  0
LINE
  5
10D
330
1F
100
AcDbEntity
  8
SLD-0
  6
SLD-DURCHGEHEND
 62
     7
100
AcDbLine
 10
76.8675496689
 20
86.4247595118
 30
0.0
 11
66.6675496689
 21
86.4247595118
 31
0.0
  0
LINE
  5
10E
330
1F
100
AcDbEntity
  8
SLD-0
  6
SLD-DURCHGEHEND
 62
     7
100
AcDbLine
 10
66.6675496689
 20
86.4247595118
 30
0.0
 11
66.6675496689
 21
66.4247595118
 31
0.0
  0
LINE
  5
10F
330
1F
100
AcDbEntity
  8
SLD-0
  6
SLD-DURCHGEHEND
 62
     7
100
AcDbLine
 10
110.5047009851
 20
80.5391401274
 30
0.0
 11
127.0047009851
 21
80.5391401274
 31
0.0
  0
LINE
  5
110
330
1F
100
AcDbEntity
  8
SLD-0
  6
SLD-DURCHGEHEND
 62
     7
100
AcDbLine
 10
127.0047009851
 20
80.5391401274
 30
0.0
 11
127.0047009851
 21
80.0391401274
 31
0.0
  0
LINE
  5
111
330
1F
100
AcDbEntity
  8
SLD-0
  6
SLD-DURCHGEHEND
 62
     7
100
AcDbLine
 10
127.0047009851
 20
80.0391401274
 30
0.0
 11
111.0047009851
 21
80.0391401274
 31
0.0
  0
LINE
  5
112
330
1F
100
AcDbEntity
  8
SLD-0
  6
SLD-DURCHGEHEND
 62
     7
100
AcDbLine
 10
127.5047009851
 20
81.3891401274
 30
0.0
 11
127.5047009851
 21
80.5391401274
 31
0.0
  0
LINE
  5
113
330
1F
100
AcDbEntity
  8
SLD-0
  6
SLD-DURCHGEHEND
 62
     7
100
AcDbLine
 10
127.5047009851
 20
80.5391401274
 30
0.0
 11
127.0047009851
 21
80.5391401274
 31
0.0
  0
LINE
  5
114
330
1F
100
AcDbEntity
  8
SLD-0
  6
SLD-DURCHGEHEND
 62
     7
100
AcDbLine
 10
127.0047009851
 20
80.5391401274
 30
0.0
 11
127.0047009851
 21
81.3891401274
 31
0.0
  0
LINE
  5
115
330
1F
100
AcDbEntity
  8
SLD-0
  6
SLD-DURCHGEHEND
 62
     7
100
AcDbLine
 10
127.0047009851
 20
81.3891401274
 30
0.0
 11
127.5047009851
 21
81.3891401274
 31
0.0
  0
LINE
  5
116
330
1F
100
AcDbEntity
  8
SLD-0
  6
SLD-DURCHGEHEND
 62
     7
100
AcDbLine
 10
111.0047009851
 20
81.8891401274
 30
0.0
 11
127.0047009851
 21
81.8891401274
 31
0.0
  0
LINE
  5
117
330
1F
100
AcDbEntity
  8
SLD-0
  6
SLD-DURCHGEHEND
 62
     7
100
AcDbLine
 10
127.0047009851
 20
81.8891401274
 30
0.0
 11
127.0047009851
 21
81.3891401274
 31
0.0
  0
LINE
  5
118
330
1F
100
AcDbEntity
  8
SLD-0
  6
SLD-DURCHGEHEND
 62
     7
100
AcDbLine
 10
127.0047009851
 20
81.3891401274
 30
0.0
 11
110.5047009851
 21
81.3891401274
 31
0.0
  0
LINE
  5
119
330
1F
100
AcDbEntity
  8
SLD-0
  6
SLD-DURCHGEHEND
 62
     7
100
AcDbLine
 10
110.5047009851
 20
81.3891401274
 30
0.0
 11
110.5047009851
 21
80.5391401274
 31
0.0
  0
LINE
  5
11A
330
1F
100
AcDbEntity
  8
SLD-0
  6
SLD-DURCHGEHEND
 62
     7
100
AcDbLine
 10
111.0047009851
 20
80.0391401274
 30
0.0
 11
111.0047009851
 21
79.5391401274
 31
0.0
  0
LINE
  5
11B
330
1F
100
AcDbEntity
  8
SLD-0
  6
SLD-DURCHGEHEND
 62
     7
100
AcDbLine
 10
110.5047009851
 20
80.5391401274
 30
0.0
 11
110.0047009851
 21
80.5391401274
 31
0.0
  0
LINE
  5
11C
330
1F
100
AcDbEntity
  8
SLD-0
  6
SLD-DURCHGEHEND
 62
     7
100
AcDbLine
 10
110.0047009851
 20
81.8891401274
 30
0.0
 11
110.0047009851
 21
81.3891401274
 31
0.0
  0
LINE
  5
11D
330
1F
100
AcDbEntity
  8
SLD-0
  6
SLD-DURCHGEHEND
 62
     7
100
AcDbLine
 10
110.5047009851
 20
81.3891401274
 30
0.0
 11
110.0047009851
 21
81.3891401274
 31
0.0
  0
LINE
  5
11E
330
1F
100
AcDbEntity
  8
SLD-0
  6
SLD-DURCHGEHEND
 62
     7
100
AcDbLine
 10
111.0047009851
 20
81.8891401274
 30
0.0
 11
110.0047009851
 21
81.8891401274
 31
0.0
  0
LINE
  5
11F
330
1F
100
AcDbEntity
  8
SLD-0
  6
SLD-DURCHGEHEND
 62
     7
100
AcDbLine
 10
110.0047009851
 20
80.5391401274
 30
0.0
 11
110.0047009851
 21
81.3891401274
 31
0.0
  0
LINE
  5
120
330
1F
100
AcDbEntity
  8
SLD-0
  6
SLD-DURCHGEHEND
 62
     7
100
AcDbLine
 10
128.0047009851
 20
81.3891401274
 30
0.0
 11
127.5047009851
 21
81.3891401274
 31
0.0
  0
LINE
  5
121
330
1F
100
AcDbEntity
  8
SLD-0
  6
SLD-DURCHGEHEND
 62
     7
100
AcDbLine
 10
128.0047009851
 20
81.3891401274
 30
0.0
 11
128.0047009851
 21
80.5391401274
 31
0.0
  0
LINE
  5
122
330
1F
100
AcDbEntity
  8
SLD-0
  6
SLD-DURCHGEHEND
 62
     7
100
AcDbLine
 10
127.5047009851
 20
80.5391401274
 30
0.0
 11
128.0047009851
 21
80.5391401274
 31
0.0
  0
LINE
  5
123
330
1F
100
AcDbEntity
  8
SLD-0
  6
SLD-DURCHGEHEND
 62
     7
100
AcDbLine
 10
128.0047009851
 20
81.3891401274
 30
0.0
 11
128.0047009851
 21
81.8891401274
 31
0.0
  0
LINE
  5
124
330
1F
100
AcDbEntity
  8
SLD-0
  6
SLD-DURCHGEHEND
 62
     7
100
AcDbLine
 10
128.0047009851
 20
81.8891401274
 30
0.0
 11
127.0047009851
 21
81.8891401274
 31
0.0
  0
LINE
  5
125
330
1F
100
AcDbEntity
  8
SLD-0
  6
SLD-DURCHGEHEND
 62
     7
100
AcDbLine
 10
127.0047009851
 20
80.0391401274
 30
0.0
 11
127.0047009851
 21
79.5391401274
 31
0.0
  0
LINE
  5
126
330
1F
100
AcDbEntity
  8
SLD-0
  6
SLD-DURCHGEHEND
 62
     7
100
AcDbLine
 10
127.0047009851
 20
79.5391401274
 30
0.0
 11
111.0047009851
 21
79.5391401274
 31
0.0
  0
LINE
  5
127
330
1F
100
AcDbEntity
  8
SLD-0
  6
SLD-DURCHGEHEND
 62
     7
100
AcDbLine
 10
100.3547009851
 20
82.8891401274
 30
0.0
 11
99.8547009851
 21
82.8891401274
 31
0.0
  0
LINE
  5
128
330
1F
100
AcDbEntity
  8
SLD-0
  6
SLD-DURCHGEHEND
 62
     7
100
AcDbLine
 10
99.8547009851
 20
83.3891401274
 30
0.0
 11
99.8547009851
 21
82.8891401274
 31
0.0
  0
LINE
  5
129
330
1F
100
AcDbEntity
  8
SLD-0
  6
SLD-DURCHGEHEND
 62
     7
100
AcDbLine
 10
99.8547009851
 20
82.3891401274
 30
0.0
 11
99.8547009851
 21
82.8891401274
 31
0.0
  0
LINE
  5
12A
330
1F
100
AcDbEntity
  8
SLD-0
  6
SLD-DURCHGEHEND
 62
     7
100
AcDbLine
 10
110.0047009851
 20
81.3891401274
 30
0.0
 11
100.8547009851
 21
81.3891401274
 31
0.0
  0
LINE
  5
12B
330
1F
100
AcDbEntity
  8
SLD-0
  6
SLD-DURCHGEHEND
 62
     7
100
AcDbLine
 10
138.1647731733
 20
81.3891401274
 30
0.0
 11
128.0047009851
 21
81.3891401274
 31
0.0
  0
LINE
  5
12C
330
1F
100
AcDbEntity
  8
SLD-0
  6
SLD-DURCHGEHEND
 62
     7
100
AcDbLine
 10
102.5047009851
 20
80.1391401274
 30
0.0
 11
102.5047009851
 21
77.1391401274
 31
0.0
  0
LINE
  5
12D
330
1F
100
AcDbEntity
  8
SLD-0
  6
SLD-DURCHGEHEND
 62
     7
100
AcDbLine
 10
99.0047009851
 20
80.1391401274
 30
0.0
 11
102.5047009851
 21
80.1391401274
 31
0.0
  0
LINE
  5
12E
330
1F
100
AcDbEntity
  8
SLD-0
  6
SLD-DURCHGEHEND
 62
     7
100
AcDbLine
 10
99.0047009851
 20
82.8891401274
 30
0.0
 11
99.0047009851
 21
80.1391401274
 31
0.0
  0
LINE
  5
12F
330
1F
100
AcDbEntity
  8
SLD-0
  6
SLD-DURCHGEHEND
 62
     7
100
AcDbLine
 10
99.8547009851
 20
82.8891401274
 30
0.0
 11
99.0047009851
 21
82.8891401274
 31
0.0
  0
LINE
  5
130
330
1F
100
AcDbEntity
  8
SLD-0
  6
SLD-DURCHGEHEND
 62
     7
100
AcDbLine
 10
102.5047009851
 20
77.1391401274
 30
0.0
 11
125.0047009851
 21
77.1391401274
 31
0.0
  0
LINE
  5
131
330
1F
100
AcDbEntity
  8
SLD-0
  6
SLD-DURCHGEHEND
 62
     7
100
AcDbLine
 10
138.8047009851
 20
81.8891401274
 30
0.0
 11
138.8047009851
 21
81.8680962639
 31
0.0
  0
LINE
  5
132
330
1F
100
AcDbEntity
  8
SLD-0
  6
SLD-DURCHGEHEND
 62
     7
100
AcDbLine
 10
128.0047009851
 20
81.8891401274
 30
0.0
 11
138.8047009851
 21
81.8891401274
 31
0.0
  0
LINE
  5
133
330
1F
100
AcDbEntity
  8
SLD-0
  6
SLD-DURCHGEHEND
 62
     7
100
AcDbLine
 10
100.3547009851
 20
82.8891401274
 30
0.0
 11
100.3547009851
 21
82.3891401274
 31
0.0
  0
LINE
  5
134
330
1F
100
AcDbEntity
  8
SLD-0
  6
SLD-DURCHGEHEND
 62
     7
100
AcDbLine
 10
100.3547009851
 20
82.3891401274
 30
0.0
 11
99.8547009851
 21
82.3891401274
 31
0.0
  0
LINE
  5
135
330
1F
100
AcDbEntity
  8
SLD-0
  6
SLD-DURCHGEHEND
 62
     7
100
AcDbLine
 10
98.5047009851
 20
80.1391401274
 30
0.0
 11
98.5047009851
 21
82.8891401274
 31
0.0
  0
LINE
  5
136
330
1F
100
AcDbEntity
  8
SLD-0
  6
SLD-DURCHGEHEND
 62
     7
100
AcDbLine
 10
98.5047009851
 20
82.8891401274
 30
0.0
 11
99.0047009851
 21
82.8891401274
 31
0.0
  0
LINE
  5
137
330
1F
100
AcDbEntity
  8
SLD-0
  6
SLD-DURCHGEHEND
 62
     7
100
AcDbLine
 10
99.0047009851
 20
80.1391401274
 30
0.0
 11
98.5047009851
 21
80.1391401274
 31
0.0
  0
LINE
  5
138
330
1F
100
AcDbEntity
  8
SLD-0
  6
SLD-DURCHGEHEND
 62
     7
100
AcDbLine
 10
100.8547009851
 20
81.8891401274
 30
0.0
 11
100.8547009851
 21
81.3891401274
 31
0.0
  0
LINE
  5
139
330
1F
100
AcDbEntity
  8
SLD-0
  6
SLD-DURCHGEHEND
 62
     7
100
AcDbLine
 10
100.8547009851
 20
81.8891401274
 30
0.0
 11
110.0047009851
 21
81.8891401274
 31
0.0
  0
LINE
  5
13A
330
1F
100
AcDbEntity
  8
SLD-0
  6
SLD-DURCHGEHEND
 62
     7
100
AcDbLine
 10
99.0047009851
 20
83.3891401274
 30
0.0
 11
99.0047009851
 21
82.8891401274
 31
0.0
  0
LINE
  5
13B
330
1F
100
AcDbEntity
  8
SLD-0
  6
SLD-DURCHGEHEND
 62
     7
100
AcDbLine
 10
99.0047009851
 20
83.3891401274
 30
0.0
 11
99.8547009851
 21
83.3891401274
 31
0.0
  0
LINE
  5
13C
330
1F
100
AcDbEntity
  8
SLD-0
  6
SLD-DURCHGEHEND
 62
     7
100
AcDbLine
 10
105.8547009851
 20
82.8891401274
 30
0.0
 11
105.8547009851
 21
81.8891401274
 31
0.0
  0
LINE
  5
13D
330
1F
100
AcDbEntity
  8
SLD-0
  6
SLD-DURCHGEHEND
 62
     7
100
AcDbLine
 10
125.8547009851
 20
82.8891401274
 30
0.0
 11
125.8547009851
 21
81.8891401274
 31
0.0
  0
LINE
  5
13E
330
1F
100
AcDbEntity
  8
SLD-0
  6
SLD-DURCHGEHEND
 62
     7
100
AcDbLine
 10
105.8547009851
 20
82.8891401274
 30
0.0
 11
125.8547009851
 21
82.8891401274
 31
0.0
  0
LINE
  5
13F
330
1F
100
AcDbEntity
  8
SLD-0
  6
SLD-DURCHGEHEND
 62
     7
100
AcDbLine
 10
102.8009622042
 20
34.0067473523
 30
0.0
 11
118.2782793336
 21
29.8003441953
 31
0.0
  0
LINE
  5
140
330
1F
100
AcDbEntity
  8
SLD-0
  6
SLD-DURCHGEHEND
 62
     7
100
AcDbLine
 10
107.3948128316
 20
38.9469562101
 30
0.0
 11
102.4600506139
 21
34.1304770034
 31
0.0
  0
LINE
  5
141
330
1F
100
AcDbEntity
  8
SLD-0
  6
SLD-DURCHGEHEND
 62
     7
100
AcDbLine
 10
123.5569318333
 20
33.6271562484
 30
0.0
 11
123.9991408942
 21
33.506973301
 31
0.0
  0
LINE
  5
142
330
1F
100
AcDbEntity
  8
SLD-0
  6
SLD-DURCHGEHEND
 62
     7
100
AcDbLine
 10
124.4795125693
 20
33.631655534
 30
0.0
 11
132.0897779578
 21
41.0595078566
 31
0.0
  0
LINE
  5
143
330
1F
100
AcDbEntity
  8
SLD-0
  6
SLD-DURCHGEHEND
 62
     7
100
AcDbLine
 10
107.3950119633
 20
38.9471412316
 30
0.0
 11
107.3948128316
 21
38.9469562101
 31
0.0
  0
LINE
  5
144
330
1F
100
AcDbEntity
  8
SLD-0
  6
SLD-DURCHGEHEND
 62
     7
100
AcDbLine
 10
106.3841201173
 20
39.4051983725
 30
0.0
 11
106.3841201173
 21
38.6766061669
 31
0.0
  0
LINE
  5
145
330
1F
100
AcDbEntity
  8
SLD-0
  6
SLD-DURCHGEHEND
 62
     7
100
AcDbLine
 10
114.1862959632
 20
47.2310295909
 30
0.0
 11
106.534881038
 21
39.7630140589
 31
0.0
  0
LINE
  5
146
330
1F
100
AcDbEntity
  8
SLD-0
  6
SLD-DURCHGEHEND
 62
     7
100
AcDbLine
 10
131.7285323088
 20
42.4887054545
 30
0.0
 11
131.286323248
 21
42.6088884018
 31
0.0
  0
LINE
  5
147
330
1F
100
AcDbEntity
  8
SLD-0
  6
SLD-DURCHGEHEND
 62
     7
100
AcDbLine
 10
132.097399713
 20
41.077597316
 30
0.0
 11
132.097399713
 21
42.006207535
 31
0.0
  0
LINE
  5
148
330
1F
100
AcDbEntity
  8
SLD-0
  6
SLD-DURCHGEHEND
 62
     7
100
AcDbLine
 10
114.9245879969
 20
47.0556574535
 30
0.0
 11
114.2338741364
 21
47.2433786805
 31
0.0
  0
LINE
  5
149
330
1F
100
AcDbEntity
  8
SLD-0
  6
SLD-DURCHGEHEND
 62
     7
100
AcDbLine
 10
120.065592641
 20
51.3140257448
 30
0.0
 11
115.7953298323
 21
47.1461183326
 31
0.0
  0
LINE
  5
14A
330
1F
100
AcDbEntity
  8
SLD-0
  6
SLD-DURCHGEHEND
 62
     7
100
AcDbLine
 10
136.0022497934
 20
49.6011133292
 30
0.0
 11
121.4093507858
 21
53.5671505915
 31
0.0
  0
LINE
  5
14B
330
1F
100
AcDbEntity
  8
SLD-0
  6
SLD-DURCHGEHEND
 62
     7
100
AcDbLine
 10
136.3711171976
 20
46.7614053328
 30
0.0
 11
136.3711171976
 21
49.1186154097
 31
0.0
  0
LINE
  5
14C
330
1F
100
AcDbEntity
  8
SLD-0
  6
SLD-DURCHGEHEND
 62
     7
100
AcDbLine
 10
120.3815271093
 20
52.6974700162
 30
0.0
 11
120.3815271093
 21
52.2688863659
 31
0.0
  0
LINE
  5
14D
330
1F
100
AcDbEntity
  8
SLD-0
  6
SLD-DURCHGEHEND
 62
     7
100
AcDbLine
 10
120.9289791106
 20
53.4424683584
 30
0.0
 11
120.53228803
 21
53.0552857026
 31
0.0
  0
LINE
  5
14E
330
1F
100
AcDbEntity
  8
SLD-0
  6
SLD-DURCHGEHEND
 62
     7
100
AcDbLine
 10
114.2622950004
 20
36.5227514454
 30
0.0
 11
114.4530586104
 21
36.7089425768
 31
0.0
  0
LINE
  5
14F
330
1F
100
AcDbEntity
  8
SLD-0
  6
SLD-DURCHGEHEND
 62
     7
100
AcDbLine
 10
113.9448115722
 20
36.6090366383
 30
0.0
 11
114.2622950004
 21
36.5227514454
 31
0.0
  0
LINE
  5
150
330
1F
100
AcDbEntity
  8
SLD-0
  6
SLD-DURCHGEHEND
 62
     7
100
AcDbLine
 10
113.7982213538
 20
36.4659600913
 30
0.0
 11
113.9448115722
 21
36.6090366383
 31
0.0
  0
LINE
  5
151
330
1F
100
AcDbEntity
  8
SLD-0
  6
SLD-DURCHGEHEND
 62
     7
100
AcDbLine
 10
114.1157047822
 20
36.3796748983
 30
0.0
 11
113.7982213538
 21
36.4659600913
 31
0.0
  0
LINE
  5
152
330
1F
100
AcDbEntity
  8
SLD-0
  6
SLD-DURCHGEHEND
 62
     7
100
AcDbLine
 10
113.0686317941
 20
35.3576995626
 30
0.0
 11
114.1157047822
 21
36.3796748983
 31
0.0
  0
LINE
  5
153
330
1F
100
AcDbEntity
  8
SLD-0
  6
SLD-DURCHGEHEND
 62
     7
100
AcDbLine
 10
113.3464297939
 20
35.2822000187
 30
0.0
 11
113.0686317941
 21
35.3576995626
 31
0.0
  0
LINE
  5
154
330
1F
100
AcDbEntity
  8
SLD-0
  6
SLD-DURCHGEHEND
 62
     7
100
AcDbLine
 10
114.3947429516
 20
36.3038383029
 30
0.0
 11
113.3464297939
 21
35.2822000187
 31
0.0
  0
LINE
  5
155
330
1F
100
AcDbEntity
  8
SLD-0
  6
SLD-DURCHGEHEND
 62
     7
100
AcDbLine
 10
114.8697279244
 20
36.174747565
 30
0.0
 11
114.3947429516
 21
36.3038383029
 31
0.0
  0
LINE
  5
156
330
1F
100
AcDbEntity
  8
SLD-0
  6
SLD-DURCHGEHEND
 62
     7
100
AcDbLine
 10
115.0163181426
 20
36.317824112
 30
0.0
 11
114.8697279244
 21
36.174747565
 31
0.0
  0
LINE
  5
157
330
1F
100
AcDbEntity
  8
SLD-0
  6
SLD-DURCHGEHEND
 62
     7
100
AcDbLine
 10
114.5419532546
 20
36.4467463242
 30
0.0
 11
115.0163181426
 21
36.317824112
 31
0.0
  0
LINE
  5
158
330
1F
100
AcDbEntity
  8
SLD-0
  6
SLD-DURCHGEHEND
 62
     7
100
AcDbLine
 10
114.7075216709
 20
36.6083461742
 30
0.0
 11
114.5419532546
 21
36.4467463242
 31
0.0
  0
LINE
  5
159
330
1F
100
AcDbEntity
  8
SLD-0
  6
SLD-DURCHGEHEND
 62
     7
100
AcDbLine
 10
115.5278408364
 20
36.7675660986
 30
0.0
 11
115.3753608325
 21
36.6187409404
 31
0.0
  0
LINE
  5
15A
330
1F
100
AcDbEntity
  8
SLD-0
  6
SLD-DURCHGEHEND
 62
     7
100
AcDbLine
 10
106.8841201174
 20
39.8337820228
 30
0.0
 11
107.3263291782
 21
39.7135990755
 31
0.0
  0
LINE
  5
15B
330
1F
100
AcDbEntity
  8
SLD-0
  6
SLD-DURCHGEHEND
 62
     7
100
AcDbLine
 10
114.3512463402
 20
47.1219261317
 30
0.0
 11
106.8841201174
 21
39.8337820228
 31
0.0
  0
LINE
  5
15C
330
1F
100
AcDbEntity
  8
SLD-0
  6
SLD-DURCHGEHEND
 62
     7
100
AcDbLine
 10
114.7934554011
 20
47.0017431843
 30
0.0
 11
114.3512463402
 21
47.1219261317
 31
0.0
  0
LINE
  5
15D
330
1F
100
AcDbEntity
  8
SLD-0
  6
SLD-DURCHGEHEND
 62
     7
100
AcDbLine
 10
120.4148317204
 20
51.3847937087
 30
0.0
 11
116.1445689117
 21
47.2168862964
 31
0.0
  0
LINE
  5
15E
330
1F
100
AcDbEntity
  8
SLD-0
  6
SLD-DURCHGEHEND
 62
     7
100
AcDbLine
 10
135.0077307281
 20
47.4187564464
 30
0.0
 11
120.4148317204
 21
51.3847937087
 31
0.0
  0
LINE
  5
15F
330
1F
100
AcDbEntity
  8
SLD-0
  6
SLD-DURCHGEHEND
 62
     7
100
AcDbLine
 10
130.7374679194
 20
43.2508490341
 30
0.0
 11
135.0077307281
 21
47.4187564464
 31
0.0
  0
LINE
  5
160
330
1F
100
AcDbEntity
  8
SLD-0
  6
SLD-DURCHGEHEND
 62
     7
100
AcDbLine
 10
130.7374679194
 20
43.2508490341
 30
0.0
 11
130.6634140119
 21
43.157365072
 31
0.0
  0
LINE
  5
161
330
1F
100
AcDbEntity
  8
SLD-0
  6
SLD-DURCHGEHEND
 62
     7
100
AcDbLine
 10
130.6634140119
 20
43.157365072
 30
0.0
 11
130.6261936469
 21
43.0582365197
 31
0.0
  0
LINE
  5
162
330
1F
100
AcDbEntity
  8
SLD-0
  6
SLD-DURCHGEHEND
 62
     7
100
AcDbLine
 10
130.6261936469
 20
43.0582365197
 30
0.0
 11
130.6272371823
 21
42.9572728317
 31
0.0
  0
LINE
  5
163
330
1F
100
AcDbEntity
  8
SLD-0
  6
SLD-DURCHGEHEND
 62
     7
100
AcDbLine
 10
130.6272371823
 20
42.9572728317
 30
0.0
 11
130.6665045155
 21
42.8583539859
 31
0.0
  0
LINE
  5
164
330
1F
100
AcDbEntity
  8
SLD-0
  6
SLD-DURCHGEHEND
 62
     7
100
AcDbLine
 10
130.6665045155
 20
42.8583539859
 30
0.0
 11
130.742486625
 21
42.7652813783
 31
0.0
  0
LINE
  5
165
330
1F
100
AcDbEntity
  8
SLD-0
  6
SLD-DURCHGEHEND
 62
     7
100
AcDbLine
 10
130.742486625
 20
42.7652813783
 30
0.0
 11
130.8522635608
 21
42.6816317368
 31
0.0
  0
LINE
  5
166
330
1F
100
AcDbEntity
  8
SLD-0
  6
SLD-DURCHGEHEND
 62
     7
100
AcDbLine
 10
130.8522635608
 20
42.6816317368
 30
0.0
 11
130.991616657
 21
42.6106196703
 31
0.0
  0
LINE
  5
167
330
1F
100
AcDbEntity
  8
SLD-0
  6
SLD-DURCHGEHEND
 62
     7
100
AcDbLine
 10
130.991616657
 20
42.6106196703
 30
0.0
 11
131.1551906521
 21
42.5549741326
 31
0.0
  0
LINE
  5
168
330
1F
100
AcDbEntity
  8
SLD-0
  6
SLD-DURCHGEHEND
 62
     7
100
AcDbLine
 10
131.597399713
 20
42.4347911853
 30
0.0
 11
131.1551906521
 21
42.5549741326
 31
0.0
  0
LINE
  5
169
330
1F
100
AcDbEntity
  8
SLD-0
  6
SLD-DURCHGEHEND
 62
     7
100
AcDbLine
 10
124.1302734901
 20
35.1466470764
 30
0.0
 11
131.597399713
 21
42.4347911853
 31
0.0
  0
LINE
  5
16A
330
1F
100
AcDbEntity
  8
SLD-0
  6
SLD-DURCHGEHEND
 62
     7
100
AcDbLine
 10
123.6880644292
 20
35.2668300238
 30
0.0
 11
124.1302734901
 21
35.1466470764
 31
0.0
  0
LINE
  5
16B
330
1F
100
AcDbEntity
  8
SLD-0
  6
SLD-DURCHGEHEND
 62
     7
100
AcDbLine
 10
117.2966407182
 20
30.1321896382
 30
0.0
 11
122.3369509186
 21
35.0516869117
 31
0.0
  0
LINE
  5
16C
330
1F
100
AcDbEntity
  8
SLD-0
  6
SLD-DURCHGEHEND
 62
     7
100
AcDbLine
 10
117.2966407182
 20
30.1321896382
 30
0.0
 11
102.7037417105
 21
34.0982269005
 31
0.0
  0
LINE
  5
16D
330
1F
100
AcDbEntity
  8
SLD-0
  6
SLD-DURCHGEHEND
 62
     7
100
AcDbLine
 10
107.744051911
 20
39.017724174
 30
0.0
 11
102.7037417105
 21
34.0982269005
 31
0.0
  0
LINE
  5
16E
330
1F
100
AcDbEntity
  8
SLD-0
  6
SLD-DURCHGEHEND
 62
     7
100
AcDbLine
 10
107.744051911
 20
39.017724174
 30
0.0
 11
107.8181058184
 21
39.1112081361
 31
0.0
  0
LINE
  5
16F
330
1F
100
AcDbEntity
  8
SLD-0
  6
SLD-DURCHGEHEND
 62
     7
100
AcDbLine
 10
107.8181058184
 20
39.1112081361
 30
0.0
 11
107.8553261834
 21
39.2103366885
 31
0.0
  0
LINE
  5
170
330
1F
100
AcDbEntity
  8
SLD-0
  6
SLD-DURCHGEHEND
 62
     7
100
AcDbLine
 10
107.8553261834
 20
39.2103366885
 30
0.0
 11
107.854282648
 21
39.3113003765
 31
0.0
  0
LINE
  5
171
330
1F
100
AcDbEntity
  8
SLD-0
  6
SLD-DURCHGEHEND
 62
     7
100
AcDbLine
 10
107.854282648
 20
39.3113003765
 30
0.0
 11
107.8150153148
 21
39.4102192222
 31
0.0
  0
LINE
  5
172
330
1F
100
AcDbEntity
  8
SLD-0
  6
SLD-DURCHGEHEND
 62
     7
100
AcDbLine
 10
107.8150153148
 20
39.4102192222
 30
0.0
 11
107.7390332053
 21
39.5032918298
 31
0.0
  0
LINE
  5
173
330
1F
100
AcDbEntity
  8
SLD-0
  6
SLD-DURCHGEHEND
 62
     7
100
AcDbLine
 10
107.7390332053
 20
39.5032918298
 30
0.0
 11
107.6292562695
 21
39.5869414713
 31
0.0
  0
LINE
  5
174
330
1F
100
AcDbEntity
  8
SLD-0
  6
SLD-DURCHGEHEND
 62
     7
100
AcDbLine
 10
107.6292562695
 20
39.5869414713
 30
0.0
 11
107.4899031733
 21
39.6579535378
 31
0.0
  0
LINE
  5
175
330
1F
100
AcDbEntity
  8
SLD-0
  6
SLD-DURCHGEHEND
 62
     7
100
AcDbLine
 10
107.4899031733
 20
39.6579535378
 30
0.0
 11
107.3263291782
 21
39.7135990755
 31
0.0
  0
LINE
  5
176
330
1F
100
AcDbEntity
  8
SLD-0
  6
SLD-DURCHGEHEND
 62
     7
100
AcDbLine
 10
118.037501138
 20
29.8749159225
 30
0.0
 11
118.4235670672
 21
29.7640836742
 31
0.0
  0
LINE
  5
177
330
1F
100
AcDbEntity
  8
SLD-0
  6
SLD-DURCHGEHEND
 62
     7
100
AcDbLine
 10
118.4235670672
 20
29.7640836742
 30
0.0
 11
118.8210927905
 21
29.6965539175
 31
0.0
  0
LINE
  5
178
330
1F
100
AcDbEntity
  8
SLD-0
  6
SLD-DURCHGEHEND
 62
     7
100
AcDbLine
 10
118.8210927905
 20
29.6965539175
 30
0.0
 11
119.2292868178
 21
29.672461107
 31
0.0
  0
LINE
  5
179
330
1F
100
AcDbEntity
  8
SLD-0
  6
SLD-DURCHGEHEND
 62
     7
100
AcDbLine
 10
119.2292868178
 20
29.672461107
 30
0.0
 11
119.6473364181
 21
29.6918532124
 31
0.0
  0
LINE
  5
17A
330
1F
100
AcDbEntity
  8
SLD-0
  6
SLD-DURCHGEHEND
 62
     7
100
AcDbLine
 10
119.6473364181
 20
29.6918532124
 30
0.0
 11
120.0744092373
 21
29.7546916232
 31
0.0
  0
LINE
  5
17B
330
1F
100
AcDbEntity
  8
SLD-0
  6
SLD-DURCHGEHEND
 62
     7
100
AcDbLine
 10
120.0744092373
 20
29.7546916232
 30
0.0
 11
120.5096549558
 21
29.8608512256
 31
0.0
  0
LINE
  5
17C
330
1F
100
AcDbEntity
  8
SLD-0
  6
SLD-DURCHGEHEND
 62
     7
100
AcDbLine
 10
120.5096549558
 20
29.8608512256
 30
0.0
 11
120.9522069816
 21
30.0101206514
 31
0.0
  0
LINE
  5
17D
330
1F
100
AcDbEntity
  8
SLD-0
  6
SLD-DURCHGEHEND
 62
     7
100
AcDbLine
 10
120.9522069816
 20
30.0101206514
 30
0.0
 11
121.4011841752
 21
30.2022026992
 31
0.0
  0
LINE
  5
17E
330
1F
100
AcDbEntity
  8
SLD-0
  6
SLD-DURCHGEHEND
 62
     7
100
AcDbLine
 10
121.4011841752
 20
30.2022026992
 30
0.0
 11
121.8556926047
 21
30.4367149255
 31
0.0
  0
LINE
  5
17F
330
1F
100
AcDbEntity
  8
SLD-0
  6
SLD-DURCHGEHEND
 62
     7
100
AcDbLine
 10
121.8556926047
 20
30.4367149255
 30
0.0
 11
122.314827325
 21
30.7131904069
 31
0.0
  0
LINE
  5
180
330
1F
100
AcDbEntity
  8
SLD-0
  6
SLD-DURCHGEHEND
 62
     7
100
AcDbLine
 10
122.314827325
 20
30.7131904069
 30
0.0
 11
122.7776741799
 21
31.0310786693
 31
0.0
  0
LINE
  5
181
330
1F
100
AcDbEntity
  8
SLD-0
  6
SLD-DURCHGEHEND
 62
     7
100
AcDbLine
 10
122.7776741799
 20
31.0310786693
 30
0.0
 11
123.2433116224
 21
31.3897467841
 31
0.0
  0
LINE
  5
182
330
1F
100
AcDbEntity
  8
SLD-0
  6
SLD-DURCHGEHEND
 62
     7
100
AcDbLine
 10
123.2433116224
 20
31.3897467841
 30
0.0
 11
123.710812549
 21
31.7884806283
 31
0.0
  0
LINE
  5
183
330
1F
100
AcDbEntity
  8
SLD-0
  6
SLD-DURCHGEHEND
 62
     7
100
AcDbLine
 10
123.710812549
 20
31.7884806283
 30
0.0
 11
124.1792461463
 21
32.2264863064
 31
0.0
  0
LINE
  5
184
330
1F
100
AcDbEntity
  8
SLD-0
  6
SLD-DURCHGEHEND
 62
     7
100
AcDbLine
 10
102.5601840086
 20
34.0813190795
 30
0.0
 11
102.8009622042
 21
34.0067473523
 31
0.0
  0
LINE
  5
185
330
1F
100
AcDbEntity
  8
SLD-0
  6
SLD-DURCHGEHEND
 62
     7
100
AcDbLine
 10
117.4235817394
 20
30.079651677
 30
0.0
 11
102.5768006893
 21
34.1146886383
 31
0.0
  0
LINE
  5
186
330
1F
100
AcDbEntity
  8
SLD-0
  6
SLD-DURCHGEHEND
 62
     7
100
AcDbLine
 10
122.7791599795
 20
34.502920314
 30
0.0
 11
118.037501138
 21
29.8749159225
 31
0.0
  0
LINE
  5
187
330
1F
100
AcDbEntity
  8
SLD-0
  6
SLD-DURCHGEHEND
 62
     7
100
AcDbLine
 10
134.6798923972
 20
45.0469408616
 30
0.0
 11
134.6798923972
 21
42.4754389595
 31
0.0
  0
LINE
  5
188
330
1F
100
AcDbEntity
  8
SLD-0
  6
SLD-DURCHGEHEND
 62
     7
100
AcDbLine
 10
134.6798923972
 20
42.4754389595
 30
0.0
 11
124.1792461463
 21
32.2264863064
 31
0.0
  0
LINE
  5
189
330
1F
100
AcDbEntity
  8
SLD-0
  6
SLD-DURCHGEHEND
 62
     7
100
AcDbLine
 10
122.7791599795
 20
33.7743281084
 30
0.0
 11
122.7791599795
 21
34.502920314
 31
0.0
  0
LINE
  5
18A
330
1F
100
AcDbEntity
  8
SLD-0
  6
SLD-DURCHGEHEND
 62
     7
100
AcDbLine
 10
122.7791599795
 20
33.7743281084
 30
0.0
 11
122.7881274005
 21
33.6158555415
 31
0.0
  0
LINE
  5
18B
330
1F
100
AcDbEntity
  8
SLD-0
  6
SLD-DURCHGEHEND
 62
     7
100
AcDbLine
 10
122.7881274005
 20
33.6158555415
 30
0.0
 11
122.8146850506
 21
33.4809779422
 31
0.0
  0
LINE
  5
18C
330
1F
100
AcDbEntity
  8
SLD-0
  6
SLD-DURCHGEHEND
 62
     7
100
AcDbLine
 10
122.8146850506
 20
33.4809779422
 30
0.0
 11
122.8578123343
 21
33.3748785809
 31
0.0
  0
LINE
  5
18D
330
1F
100
AcDbEntity
  8
SLD-0
  6
SLD-DURCHGEHEND
 62
     7
100
AcDbLine
 10
122.8578123343
 20
33.3748785809
 30
0.0
 11
122.9158518941
 21
33.3016347967
 31
0.0
  0
LINE
  5
18E
330
1F
100
AcDbEntity
  8
SLD-0
  6
SLD-DURCHGEHEND
 62
     7
100
AcDbLine
 10
122.9158518941
 20
33.3016347967
 30
0.0
 11
122.9865733024
 21
33.264061307
 31
0.0
  0
LINE
  5
18F
330
1F
100
AcDbEntity
  8
SLD-0
  6
SLD-DURCHGEHEND
 62
     7
100
AcDbLine
 10
122.9865733024
 20
33.264061307
 30
0.0
 11
123.0672587751
 21
33.26360204
 31
0.0
  0
LINE
  5
190
330
1F
100
AcDbEntity
  8
SLD-0
  6
SLD-DURCHGEHEND
 62
     7
100
AcDbLine
 10
123.0672587751
 20
33.26360204
 30
0.0
 11
123.1548076147
 21
33.300274645
 31
0.0
  0
LINE
  5
191
330
1F
100
AcDbEntity
  8
SLD-0
  6
SLD-DURCHGEHEND
 62
     7
100
AcDbLine
 10
123.1548076147
 20
33.300274645
 30
0.0
 11
123.2458553684
 21
33.3726698145
 31
0.0
  0
LINE
  5
192
330
1F
100
AcDbEntity
  8
SLD-0
  6
SLD-DURCHGEHEND
 62
     7
100
AcDbLine
 10
135.4499397889
 20
46.8699898487
 30
0.0
 11
131.1796769802
 21
42.7020824364
 31
0.0
  0
LINE
  5
193
330
1F
100
AcDbEntity
  8
SLD-0
  6
SLD-DURCHGEHEND
 62
     7
100
AcDbLine
 10
135.9166351778
 20
48.6112498066
 30
0.0
 11
135.9166351778
 21
48.1826661562
 31
0.0
  0
LINE
  5
194
330
1F
100
AcDbEntity
  8
SLD-0
  6
SLD-DURCHGEHEND
 62
     7
100
AcDbLine
 10
136.3133262584
 20
48.9984324624
 30
0.0
 11
135.9166351778
 21
48.6112498066
 31
0.0
  0
LINE
  5
195
330
1F
100
AcDbEntity
  8
SLD-0
  6
SLD-DURCHGEHEND
 62
     7
100
AcDbLine
 10
136.3133262584
 20
46.6412223855
 30
0.0
 11
136.3133262584
 21
48.9984324624
 31
0.0
  0
LINE
  5
196
330
1F
100
AcDbEntity
  8
SLD-0
  6
SLD-DURCHGEHEND
 62
     7
100
AcDbLine
 10
136.3133262584
 20
46.6412223855
 30
0.0
 11
134.6798923972
 21
45.0469408616
 31
0.0
  0
LINE
  5
197
330
1F
100
AcDbEntity
  8
SLD-0
  6
SLD-DURCHGEHEND
 62
     7
100
AcDbLine
 10
123.8969257956
 20
34.4903089227
 30
0.0
 11
123.4547167348
 21
34.61049187
 31
0.0
  0
LINE
  5
198
330
1F
100
AcDbEntity
  8
SLD-0
  6
SLD-DURCHGEHEND
 62
     7
100
AcDbLine
 10
123.8969257956
 20
33.7617167171
 30
0.0
 11
123.8969257956
 21
34.4903089227
 31
0.0
  0
LINE
  5
199
330
1F
100
AcDbEntity
  8
SLD-0
  6
SLD-DURCHGEHEND
 62
     7
100
AcDbLine
 10
124.5724825509
 20
34.5978804788
 30
0.0
 11
124.5724825509
 21
33.8692882731
 31
0.0
  0
LINE
  5
19A
330
1F
100
AcDbEntity
  8
SLD-0
  6
SLD-DURCHGEHEND
 62
     7
100
AcDbLine
 10
123.4547167348
 20
34.61049187
 30
0.0
 11
123.4547167348
 21
33.8818996645
 31
0.0
  0
LINE
  5
19B
330
1F
100
AcDbEntity
  8
SLD-0
  6
SLD-DURCHGEHEND
 62
     7
100
AcDbLine
 10
132.0396087737
 20
41.8860245877
 30
0.0
 11
124.5724825509
 21
34.5978804788
 31
0.0
  0
LINE
  5
19C
330
1F
100
AcDbEntity
  8
SLD-0
  6
SLD-DURCHGEHEND
 62
     7
100
AcDbLine
 10
123.4547167348
 20
33.8818996645
 30
0.0
 11
123.8969257956
 21
33.7617167171
 31
0.0
  0
LINE
  5
19D
330
1F
100
AcDbEntity
  8
SLD-0
  6
SLD-DURCHGEHEND
 62
     7
100
AcDbLine
 10
132.0396087737
 20
41.157432382
 30
0.0
 11
132.0396087737
 21
41.8860245877
 31
0.0
  0
LINE
  5
19E
330
1F
100
AcDbEntity
  8
SLD-0
  6
SLD-DURCHGEHEND
 62
     7
100
AcDbLine
 10
124.5724825509
 20
33.8692882731
 30
0.0
 11
132.0396087737
 21
41.157432382
 31
0.0
  0
LINE
  5
19F
330
1F
100
AcDbEntity
  8
SLD-0
  6
SLD-DURCHGEHEND
 62
     7
100
AcDbLine
 10
114.1157047822
 20
36.1340078753
 30
0.0
 11
114.197631094
 21
36.1117420592
 31
0.0
  0
LINE
  5
1A0
330
1F
100
AcDbEntity
  8
SLD-0
  6
SLD-DURCHGEHEND
 62
     7
100
AcDbLine
 10
114.4530586105
 20
36.2803589265
 30
0.0
 11
114.5419532546
 21
36.3600466151
 31
0.0
  0
LINE
  5
1A1
330
1F
100
AcDbEntity
  8
SLD-0
  6
SLD-DURCHGEHEND
 62
     7
100
AcDbLine
 10
114.1157047822
 20
36.0319004049
 30
0.0
 11
114.1157047822
 21
36.3796748983
 31
0.0
  0
LINE
  5
1A2
330
1F
100
AcDbEntity
  8
SLD-0
  6
SLD-DURCHGEHEND
 62
     7
100
AcDbLine
 10
114.5419532546
 20
36.2638296969
 30
0.0
 11
114.5419532546
 21
36.4467463242
 31
0.0
  0
LINE
  5
1A3
330
1F
100
AcDbEntity
  8
SLD-0
  6
SLD-DURCHGEHEND
 62
     7
100
AcDbLine
 10
113.9448115722
 20
36.426120011
 30
0.0
 11
113.9448115722
 21
36.6090366383
 31
0.0
  0
LINE
  5
1A4
330
1F
100
AcDbEntity
  8
SLD-0
  6
SLD-DURCHGEHEND
 62
     7
100
AcDbLine
 10
114.2622950004
 20
36.1747605588
 30
0.0
 11
114.2622950004
 21
36.5227514454
 31
0.0
  0
LINE
  5
1A5
330
1F
100
AcDbEntity
  8
SLD-0
  6
SLD-DURCHGEHEND
 62
     7
100
AcDbLine
 10
115.2200322932
 20
36.6982620126
 30
0.0
 11
115.2200322932
 21
36.8896016932
 31
0.0
  0
LINE
  5
1A6
330
1F
100
AcDbEntity
  8
SLD-0
  6
SLD-DURCHGEHEND
 62
     7
100
AcDbLine
 10
107.0929814837
 20
39.0572609217
 30
0.0
 11
106.6507724228
 21
39.1774438691
 31
0.0
  0
LINE
  5
1A7
330
1F
100
AcDbEntity
  8
SLD-0
  6
SLD-DURCHGEHEND
 62
     7
100
AcDbLine
 10
106.6507724228
 20
39.1774438691
 30
0.0
 11
106.6507724228
 21
38.4488516635
 31
0.0
  0
LINE
  5
1A8
330
1F
100
AcDbEntity
  8
SLD-0
  6
SLD-DURCHGEHEND
 62
     7
100
AcDbLine
 10
135.2410784225
 20
48.5036782505
 30
0.0
 11
120.6481794148
 21
52.4697155128
 31
0.0
  0
LINE
  5
1A9
330
1F
100
AcDbEntity
  8
SLD-0
  6
SLD-DURCHGEHEND
 62
     7
100
AcDbLine
 10
120.8815271093
 20
53.1260536665
 30
0.0
 11
135.474426117
 21
49.1600164043
 31
0.0
  0
LINE
  5
1AA
330
1F
100
AcDbEntity
  8
SLD-0
  6
SLD-DURCHGEHEND
 62
     7
100
AcDbLine
 10
135.2410784225
 20
48.0750946002
 30
0.0
 11
135.2410784225
 21
48.5036782505
 31
0.0
  0
LINE
  5
1AB
330
1F
100
AcDbEntity
  8
SLD-0
  6
SLD-DURCHGEHEND
 62
     7
100
AcDbLine
 10
120.6481794148
 20
52.0411318625
 30
0.0
 11
135.2410784225
 21
48.0750946002
 31
0.0
  0
LINE
  5
1AC
330
1F
100
AcDbEntity
  8
SLD-0
  6
SLD-DURCHGEHEND
 62
     7
100
AcDbLine
 10
135.474426117
 20
49.1600164043
 30
0.0
 11
135.8711171976
 21
49.54719906
 31
0.0
  0
LINE
  5
1AD
330
1F
100
AcDbEntity
  8
SLD-0
  6
SLD-DURCHGEHEND
 62
     7
100
AcDbLine
 10
120.6481794148
 20
52.4697155128
 30
0.0
 11
120.6481794148
 21
52.0411318625
 31
0.0
  0
LINE
  5
1AE
330
1F
100
AcDbEntity
  8
SLD-0
  6
SLD-DURCHGEHEND
 62
     7
100
AcDbLine
 10
121.2782181899
 20
53.5132363223
 30
0.0
 11
120.8815271093
 21
53.1260536665
 31
0.0
  0
LINE
  5
1AF
330
1F
100
AcDbEntity
  8
SLD-0
  6
SLD-DURCHGEHEND
 62
     7
100
AcDbLine
 10
135.8711171976
 20
49.54719906
 30
0.0
 11
121.2782181899
 21
53.5132363223
 31
0.0
  0
LINE
  5
1B0
330
1F
100
AcDbEntity
  8
SLD-0
  6
SLD-DURCHGEHEND
 62
     7
100
AcDbLine
 10
120.5544289215
 20
37.6453511452
 30
0.0
 11
129.8883367001
 21
46.7555312814
 31
0.0
  0
LINE
  5
1B1
330
1F
100
AcDbEntity
  8
SLD-0
  6
SLD-DURCHGEHEND
 62
     7
100
AcDbLine
 10
111.5333640804
 20
40.0970832711
 30
0.0
 11
120.5544289215
 21
37.6453511452
 31
0.0
  0
LINE
  5
1B2
330
1F
100
AcDbEntity
  8
SLD-0
  6
SLD-DURCHGEHEND
 62
     7
100
AcDbLine
 10
120.867271859
 20
49.2072634072
 30
0.0
 11
111.5333640804
 21
40.0970832711
 31
0.0
  0
LINE
  5
1B3
330
1F
100
AcDbEntity
  8
SLD-0
  6
SLD-DURCHGEHEND
 62
     7
100
AcDbLine
 10
129.8883367001
 20
46.7555312814
 30
0.0
 11
120.867271859
 21
49.2072634072
 31
0.0
  0
LINE
  5
1B4
330
1F
100
AcDbEntity
  8
SLD-0
  6
SLD-DURCHGEHEND
 62
     7
100
AcDbLine
 10
120.5544289215
 20
37.6453511452
 30
0.0
 11
120.5544289215
 21
36.7881838445
 31
0.0
  0
LINE
  5
1B5
330
1F
100
AcDbEntity
  8
SLD-0
  6
SLD-DURCHGEHEND
 62
     7
100
AcDbLine
 10
129.8883367001
 20
46.7555312814
 30
0.0
 11
129.8883367001
 21
45.8983639806
 31
0.0
  0
LINE
  5
1B6
330
1F
100
AcDbEntity
  8
SLD-0
  6
SLD-DURCHGEHEND
 62
     7
100
AcDbLine
 10
120.5544289215
 20
36.7881838445
 30
0.0
 11
129.8883367001
 21
45.8983639806
 31
0.0
  0
LINE
  5
1B7
330
1F
100
AcDbEntity
  8
SLD-0
  6
SLD-DURCHGEHEND
 62
     7
100
AcDbLine
 10
111.5333640804
 20
40.0970832711
 30
0.0
 11
111.5333640804
 21
39.2399159703
 31
0.0
  0
LINE
  5
1B8
330
1F
100
AcDbEntity
  8
SLD-0
  6
SLD-DURCHGEHEND
 62
     7
100
AcDbLine
 10
111.5333640804
 20
39.2399159703
 30
0.0
 11
120.5544289215
 21
36.7881838445
 31
0.0
  0
LINE
  5
1B9
330
1F
100
AcDbEntity
  8
SLD-0
  6
SLD-DURCHGEHEND
 62
     8
100
AcDbLine
 10
123.5118411865
 20
33.6322801272
 30
0.0
 11
123.2458553684
 21
33.3726698145
 31
0.0
  0
LINE
  5
1BA
330
1F
100
AcDbEntity
  8
SLD-0
  6
SLD-DURCHGEHEND
 62
     8
100
AcDbLine
 10
131.1796769802
 20
42.7020824364
 30
0.0
 11
131.1796769802
 21
42.6470857718
 31
0.0
  0
LINE
  5
1BB
330
1F
100
AcDbEntity
  8
SLD-0
  6
SLD-DURCHGEHEND
 62
     8
100
AcDbLine
 10
114.4530586104
 20
36.2879893564
 30
0.0
 11
114.4530586104
 21
36.7089425768
 31
0.0
  0
LINE
  5
1BC
330
1F
100
AcDbEntity
  8
SLD-0
  6
SLD-DURCHGEHEND
 62
     8
100
AcDbLine
 10
107.0929814837
 20
38.6523595615
 30
0.0
 11
107.0929814837
 21
39.0572609217
 31
0.0
  0
LINE
  5
1BD
330
1F
100
AcDbEntity
  8
SLD-0
  6
SLD-DURCHGEHEND
 62
     8
100
AcDbLine
 10
106.3841201173
 20
39.4051983725
 30
0.0
 11
106.386795688
 21
39.3785932186
 31
0.0
  0
LINE
  5
1BE
330
1F
100
AcDbEntity
  8
SLD-0
  6
SLD-DURCHGEHEND
 62
     8
100
AcDbLine
 10
106.386795688
 20
39.3785932186
 30
0.0
 11
106.4064293546
 21
39.3291337957
 31
0.0
  0
LINE
  5
1BF
330
1F
100
AcDbEntity
  8
SLD-0
  6
SLD-DURCHGEHEND
 62
     8
100
AcDbLine
 10
106.4064293546
 20
39.3291337957
 30
0.0
 11
106.4444204093
 21
39.2825974918
 31
0.0
  0
LINE
  5
1C0
330
1F
100
AcDbEntity
  8
SLD-0
  6
SLD-DURCHGEHEND
 62
     8
100
AcDbLine
 10
106.4444204093
 20
39.2825974918
 30
0.0
 11
106.4993088773
 21
39.2407726711
 31
0.0
  0
LINE
  5
1C1
330
1F
100
AcDbEntity
  8
SLD-0
  6
SLD-DURCHGEHEND
 62
     8
100
AcDbLine
 10
106.4993088773
 20
39.2407726711
 30
0.0
 11
106.5689854253
 21
39.2052666379
 31
0.0
  0
LINE
  5
1C2
330
1F
100
AcDbEntity
  8
SLD-0
  6
SLD-DURCHGEHEND
 62
     8
100
AcDbLine
 10
106.5689854253
 20
39.2052666379
 30
0.0
 11
106.6507724228
 21
39.1774438691
 31
0.0
  0
LINE
  5
1C3
330
1F
100
AcDbEntity
  8
SLD-0
  6
SLD-DURCHGEHEND
 62
     8
100
AcDbLine
 10
106.6507724228
 20
38.4488516635
 30
0.0
 11
106.8335741658
 21
38.3991700667
 31
0.0
  0
LINE
  5
1C4
330
1F
100
AcDbEntity
  8
SLD-0
  6
SLD-DURCHGEHEND
 62
     8
100
AcDbLine
 10
106.6507724228
 20
38.4488516635
 30
0.0
 11
106.5689854253
 21
38.4766744323
 31
0.0
  0
LINE
  5
1C5
330
1F
100
AcDbEntity
  8
SLD-0
  6
SLD-DURCHGEHEND
 62
     8
100
AcDbLine
 10
106.5689854253
 20
38.4766744323
 30
0.0
 11
106.4993088773
 21
38.5121804655
 31
0.0
  0
LINE
  5
1C6
330
1F
100
AcDbEntity
  8
SLD-0
  6
SLD-DURCHGEHEND
 62
     8
100
AcDbLine
 10
106.4993088773
 20
38.5121804655
 30
0.0
 11
106.4444204093
 21
38.5540052863
 31
0.0
  0
LINE
  5
1C7
330
1F
100
AcDbEntity
  8
SLD-0
  6
SLD-DURCHGEHEND
 62
     8
100
AcDbLine
 10
106.4444204093
 20
38.5540052863
 30
0.0
 11
106.4064293546
 21
38.6005415901
 31
0.0
  0
LINE
  5
1C8
330
1F
100
AcDbEntity
  8
SLD-0
  6
SLD-DURCHGEHEND
 62
     8
100
AcDbLine
 10
106.4064293546
 20
38.6005415901
 30
0.0
 11
106.386795688
 21
38.6500010129
 31
0.0
  0
LINE
  5
1C9
330
1F
100
AcDbEntity
  8
SLD-0
  6
SLD-DURCHGEHEND
 62
     8
100
AcDbLine
 10
106.386795688
 20
38.6500010129
 30
0.0
 11
106.3841201173
 21
38.6766061669
 31
0.0
  0
LINE
  5
1CA
330
1F
100
AcDbEntity
  8
SLD-0
  6
SLD-DURCHGEHEND
 62
     8
100
AcDbLine
 10
131.1451011602
 20
42.6594570709
 30
0.0
 11
131.1796769802
 21
42.7020824364
 31
0.0
  0
LINE
  5
1CB
330
1F
100
AcDbEntity
  8
SLD-0
  6
SLD-DURCHGEHEND
 62
     8
100
AcDbLine
 10
120.6481794148
 20
52.4697155128
 30
0.0
 11
120.5663924173
 21
52.4975382817
 31
0.0
  0
LINE
  5
1CC
330
1F
100
AcDbEntity
  8
SLD-0
  6
SLD-DURCHGEHEND
 62
     8
100
AcDbLine
 10
120.5663924173
 20
52.4975382817
 30
0.0
 11
120.4967158692
 21
52.5330443149
 31
0.0
  0
LINE
  5
1CD
330
1F
100
AcDbEntity
  8
SLD-0
  6
SLD-DURCHGEHEND
 62
     8
100
AcDbLine
 10
120.4967158692
 20
52.5330443149
 30
0.0
 11
120.4418274013
 21
52.5748691357
 31
0.0
  0
LINE
  5
1CE
330
1F
100
AcDbEntity
  8
SLD-0
  6
SLD-DURCHGEHEND
 62
     8
100
AcDbLine
 10
120.4418274013
 20
52.5748691357
 30
0.0
 11
120.4038363465
 21
52.6214054395
 31
0.0
  0
LINE
  5
1CF
330
1F
100
AcDbEntity
  8
SLD-0
  6
SLD-DURCHGEHEND
 62
     8
100
AcDbLine
 10
120.4038363465
 20
52.6214054395
 30
0.0
 11
120.3842026799
 21
52.6708648623
 31
0.0
  0
LINE
  5
1D0
330
1F
100
AcDbEntity
  8
SLD-0
  6
SLD-DURCHGEHEND
 62
     8
100
AcDbLine
 10
120.3842026799
 20
52.6708648623
 30
0.0
 11
120.3815271093
 21
52.6974700162
 31
0.0
  0
LINE
  5
1D1
330
1F
100
AcDbEntity
  8
SLD-0
  6
SLD-DURCHGEHEND
 62
     8
100
AcDbLine
 10
120.6481794148
 20
52.0411318625
 30
0.0
 11
120.5663924173
 21
52.0689546313
 31
0.0
  0
LINE
  5
1D2
330
1F
100
AcDbEntity
  8
SLD-0
  6
SLD-DURCHGEHEND
 62
     8
100
AcDbLine
 10
120.5663924173
 20
52.0689546313
 30
0.0
 11
120.4967158692
 21
52.1044606645
 31
0.0
  0
LINE
  5
1D3
330
1F
100
AcDbEntity
  8
SLD-0
  6
SLD-DURCHGEHEND
 62
     8
100
AcDbLine
 10
120.4967158692
 20
52.1044606645
 30
0.0
 11
120.4418274013
 21
52.1462854853
 31
0.0
  0
LINE
  5
1D4
330
1F
100
AcDbEntity
  8
SLD-0
  6
SLD-DURCHGEHEND
 62
     8
100
AcDbLine
 10
120.4418274013
 20
52.1462854853
 30
0.0
 11
120.4038363465
 21
52.1928217891
 31
0.0
  0
LINE
  5
1D5
330
1F
100
AcDbEntity
  8
SLD-0
  6
SLD-DURCHGEHEND
 62
     8
100
AcDbLine
 10
120.4038363465
 20
52.1928217891
 30
0.0
 11
120.3842026799
 21
52.242281212
 31
0.0
  0
LINE
  5
1D6
330
1F
100
AcDbEntity
  8
SLD-0
  6
SLD-DURCHGEHEND
 62
     8
100
AcDbLine
 10
120.3842026799
 20
52.242281212
 30
0.0
 11
120.3815310033
 21
52.2699026896
 31
0.0
  0
LINE
  5
1D7
330
1F
100
AcDbEntity
  8
SLD-0
  6
SLD-DURCHGEHEND
 62
     7
100
AcDbLine
 10
42.7255751466
 20
54.2389490446
 30
0.0
 11
42.7255751466
 21
49.9889490446
 31
0.0
  0
LINE
  5
1D8
330
1F
100
AcDbEntity
  8
SLD-0
  6
SLD-DURCHGEHEND
 62
     7
100
AcDbLine
 10
42.7255751466
 20
49.9889490446
 30
0.0
 11
25.2255751466
 21
49.9889490446
 31
0.0
  0
LINE
  5
1D9
330
1F
100
AcDbEntity
  8
SLD-0
  6
SLD-DURCHGEHEND
 62
     7
100
AcDbLine
 10
25.2255751466
 20
54.2389490446
 30
0.0
 11
25.2255751466
 21
49.9889490446
 31
0.0
  0
LINE
  5
1DA
330
1F
100
AcDbEntity
  8
SLD-0
  6
SLD-DURCHGEHEND
 62
     7
100
AcDbLine
 10
42.3691056985
 20
54.717905181
 30
0.0
 11
25.5820445946
 21
54.717905181
 31
0.0
  0
LINE
  5
1DB
330
1F
100
AcDbEntity
  8
SLD-0
  6
SLD-DURCHGEHEND
 62
     7
100
AcDbLine
 10
42.2255751466
 20
54.7389490446
 30
0.0
 11
25.7255751466
 21
54.7389490446
 31
0.0
  0
LINE
  5
1DC
330
1F
100
AcDbEntity
  8
SLD-0
  6
SLD-DURCHGEHEND
 62
     7
100
AcDbLine
 10
24.7255751466
 20
53.3889490446
 30
0.0
 11
24.7255751466
 21
54.2389490446
 31
0.0
  0
LINE
  5
1DD
330
1F
100
AcDbEntity
  8
SLD-0
  6
SLD-DURCHGEHEND
 62
     7
100
AcDbLine
 10
25.2255751466
 20
54.2389490446
 30
0.0
 11
24.7255751466
 21
54.2389490446
 31
0.0
  0
LINE
  5
1DE
330
1F
100
AcDbEntity
  8
SLD-0
  6
SLD-DURCHGEHEND
 62
     7
100
AcDbLine
 10
24.7255751466
 20
53.3889490446
 30
0.0
 11
25.2255751466
 21
53.3889490446
 31
0.0
  0
LINE
  5
1DF
330
1F
100
AcDbEntity
  8
SLD-0
  6
SLD-DURCHGEHEND
 62
     7
100
AcDbLine
 10
24.7255751466
 20
54.7389490446
 30
0.0
 11
24.7255751466
 21
54.2389490446
 31
0.0
  0
LINE
  5
1E0
330
1F
100
AcDbEntity
  8
SLD-0
  6
SLD-DURCHGEHEND
 62
     7
100
AcDbLine
 10
25.5944167789
 20
54.7389490446
 30
0.0
 11
24.7255751466
 21
54.7389490446
 31
0.0
  0
LINE
  5
1E1
330
1F
100
AcDbEntity
  8
SLD-0
  6
SLD-DURCHGEHEND
 62
     7
100
AcDbLine
 10
24.7255751466
 20
53.3889490446
 30
0.0
 11
24.7255751466
 21
52.8889490446
 31
0.0
  0
LINE
  5
1E2
330
1F
100
AcDbEntity
  8
SLD-0
  6
SLD-DURCHGEHEND
 62
     7
100
AcDbLine
 10
43.2255751466
 20
54.7389490446
 30
0.0
 11
43.2255751466
 21
54.2389490446
 31
0.0
  0
LINE
  5
1E3
330
1F
100
AcDbEntity
  8
SLD-0
  6
SLD-DURCHGEHEND
 62
     7
100
AcDbLine
 10
43.2255751466
 20
54.2389490446
 30
0.0
 11
42.7255751466
 21
54.2389490446
 31
0.0
  0
LINE
  5
1E4
330
1F
100
AcDbEntity
  8
SLD-0
  6
SLD-DURCHGEHEND
 62
     7
100
AcDbLine
 10
43.2255751466
 20
54.7389490446
 30
0.0
 11
42.3704398939
 21
54.7389490446
 31
0.0
  0
LINE
  5
1E5
330
1F
100
AcDbEntity
  8
SLD-0
  6
SLD-DURCHGEHEND
 62
     7
100
AcDbLine
 10
43.2255751466
 20
52.8889490446
 30
0.0
 11
43.2255751466
 21
53.3889490446
 31
0.0
  0
LINE
  5
1E6
330
1F
100
AcDbEntity
  8
SLD-0
  6
SLD-DURCHGEHEND
 62
     7
100
AcDbLine
 10
43.2255751466
 20
53.3889490446
 30
0.0
 11
42.7255751466
 21
53.3889490446
 31
0.0
  0
LINE
  5
1E7
330
1F
100
AcDbEntity
  8
SLD-0
  6
SLD-DURCHGEHEND
 62
     7
100
AcDbLine
 10
43.2255751466
 20
54.2389490446
 30
0.0
 11
43.2255751466
 21
53.3889490446
 31
0.0
  0
LINE
  5
1E8
330
1F
100
AcDbEntity
  8
SLD-0
  6
SLD-DURCHGEHEND
 62
     7
100
AcDbLine
 10
24.2255751466
 20
54.2389490446
 30
0.0
 11
24.2255751466
 21
53.3889490446
 31
0.0
  0
LINE
  5
1E9
330
1F
100
AcDbEntity
  8
SLD-0
  6
SLD-DURCHGEHEND
 62
     7
100
AcDbLine
 10
24.2255751466
 20
53.3889490446
 30
0.0
 11
23.7255751466
 21
53.3889490446
 31
0.0
  0
LINE
  5
1EA
330
1F
100
AcDbEntity
  8
SLD-0
  6
SLD-DURCHGEHEND
 62
     7
100
AcDbLine
 10
23.7255751466
 20
53.3889490446
 30
0.0
 11
23.7255751466
 21
54.2389490446
 31
0.0
  0
LINE
  5
1EB
330
1F
100
AcDbEntity
  8
SLD-0
  6
SLD-DURCHGEHEND
 62
     7
100
AcDbLine
 10
23.7255751466
 20
54.2389490446
 30
0.0
 11
24.2255751466
 21
54.2389490446
 31
0.0
  0
LINE
  5
1EC
330
1F
100
AcDbEntity
  8
SLD-0
  6
SLD-DURCHGEHEND
 62
     7
100
AcDbLine
 10
24.2255751466
 20
53.3889490446
 30
0.0
 11
24.7255751466
 21
53.3889490446
 31
0.0
  0
LINE
  5
1ED
330
1F
100
AcDbEntity
  8
SLD-0
  6
SLD-DURCHGEHEND
 62
     7
100
AcDbLine
 10
24.7255751466
 20
52.8889490446
 30
0.0
 11
24.2255751466
 21
52.8889490446
 31
0.0
  0
LINE
  5
1EE
330
1F
100
AcDbEntity
  8
SLD-0
  6
SLD-DURCHGEHEND
 62
     7
100
AcDbLine
 10
24.2255751466
 20
53.3889490446
 30
0.0
 11
24.2255751466
 21
52.8889490446
 31
0.0
  0
LINE
  5
1EF
330
1F
100
AcDbEntity
  8
SLD-0
  6
SLD-DURCHGEHEND
 62
     7
100
AcDbLine
 10
24.2255751466
 20
54.7389490446
 30
0.0
 11
24.2255751466
 21
54.2389490446
 31
0.0
  0
LINE
  5
1F0
330
1F
100
AcDbEntity
  8
SLD-0
  6
SLD-DURCHGEHEND
 62
     7
100
AcDbLine
 10
24.7255751466
 20
54.2389490446
 30
0.0
 11
24.2255751466
 21
54.2389490446
 31
0.0
  0
LINE
  5
1F1
330
1F
100
AcDbEntity
  8
SLD-0
  6
SLD-DURCHGEHEND
 62
     7
100
AcDbLine
 10
24.2255751466
 20
54.7389490446
 30
0.0
 11
24.7255751466
 21
54.7389490446
 31
0.0
  0
LINE
  5
1F2
330
1F
100
AcDbEntity
  8
SLD-0
  6
SLD-DURCHGEHEND
 62
     7
100
AcDbLine
 10
43.7255751466
 20
53.3889490446
 30
0.0
 11
43.7255751466
 21
54.2389490446
 31
0.0
  0
LINE
  5
1F3
330
1F
100
AcDbEntity
  8
SLD-0
  6
SLD-DURCHGEHEND
 62
     7
100
AcDbLine
 10
43.7255751466
 20
54.2389490446
 30
0.0
 11
44.2255751466
 21
54.2389490446
 31
0.0
  0
LINE
  5
1F4
330
1F
100
AcDbEntity
  8
SLD-0
  6
SLD-DURCHGEHEND
 62
     7
100
AcDbLine
 10
44.2255751466
 20
54.2389490446
 30
0.0
 11
44.2255751466
 21
53.3889490446
 31
0.0
  0
LINE
  5
1F5
330
1F
100
AcDbEntity
  8
SLD-0
  6
SLD-DURCHGEHEND
 62
     7
100
AcDbLine
 10
43.7255751466
 20
53.3889490446
 30
0.0
 11
44.2255751466
 21
53.3889490446
 31
0.0
  0
LINE
  5
1F6
330
1F
100
AcDbEntity
  8
SLD-0
  6
SLD-DURCHGEHEND
 62
     7
100
AcDbLine
 10
43.7255751466
 20
52.8889490446
 30
0.0
 11
43.2255751466
 21
52.8889490446
 31
0.0
  0
LINE
  5
1F7
330
1F
100
AcDbEntity
  8
SLD-0
  6
SLD-DURCHGEHEND
 62
     7
100
AcDbLine
 10
43.2255751466
 20
53.3889490446
 30
0.0
 11
43.7255751466
 21
53.3889490446
 31
0.0
  0
LINE
  5
1F8
330
1F
100
AcDbEntity
  8
SLD-0
  6
SLD-DURCHGEHEND
 62
     7
100
AcDbLine
 10
43.7255751466
 20
52.8889490446
 30
0.0
 11
43.7255751466
 21
53.3889490446
 31
0.0
  0
LINE
  5
1F9
330
1F
100
AcDbEntity
  8
SLD-0
  6
SLD-DURCHGEHEND
 62
     7
100
AcDbLine
 10
43.7255751466
 20
54.7389490446
 30
0.0
 11
43.7255751466
 21
54.2389490446
 31
0.0
  0
LINE
  5
1FA
330
1F
100
AcDbEntity
  8
SLD-0
  6
SLD-DURCHGEHEND
 62
     7
100
AcDbLine
 10
43.7255751466
 20
54.2389490446
 30
0.0
 11
43.2255751466
 21
54.2389490446
 31
0.0
  0
LINE
  5
1FB
330
1F
100
AcDbEntity
  8
SLD-0
  6
SLD-DURCHGEHEND
 62
     7
100
AcDbLine
 10
43.2255751466
 20
54.7389490446
 30
0.0
 11
43.7255751466
 21
54.7389490446
 31
0.0
  0
LINE
  5
1FC
330
1F
100
AcDbEntity
  8
SLD-0
  6
SLD-DURCHGEHEND
 62
     7
100
AcDbLine
 10
42.2255751466
 20
54.7389490446
 30
0.0
 11
42.2255751466
 21
55.2389490446
 31
0.0
  0
LINE
  5
1FD
330
1F
100
AcDbEntity
  8
SLD-0
  6
SLD-DURCHGEHEND
 62
     7
100
AcDbLine
 10
42.7255751466
 20
55.2389490446
 30
0.0
 11
42.2255751466
 21
55.2389490446
 31
0.0
  0
LINE
  5
1FE
330
1F
100
AcDbEntity
  8
SLD-0
  6
SLD-DURCHGEHEND
 62
     7
100
AcDbLine
 10
42.7255751466
 20
54.7389490446
 30
0.0
 11
42.7255751466
 21
55.2389490446
 31
0.0
  0
LINE
  5
1FF
330
1F
100
AcDbEntity
  8
SLD-0
  6
SLD-DURCHGEHEND
 62
     7
100
AcDbLine
 10
25.7255751466
 20
54.7389490446
 30
0.0
 11
25.7255751466
 21
55.2389490446
 31
0.0
  0
LINE
  5
200
330
1F
100
AcDbEntity
  8
SLD-0
  6
SLD-DURCHGEHEND
 62
     7
100
AcDbLine
 10
25.7255751466
 20
55.2389490446
 30
0.0
 11
25.2255751466
 21
55.2389490446
 31
0.0
  0
LINE
  5
201
330
1F
100
AcDbEntity
  8
SLD-0
  6
SLD-DURCHGEHEND
 62
     7
100
AcDbLine
 10
25.2255751466
 20
55.2389490446
 30
0.0
 11
25.2255751466
 21
54.7389490446
 31
0.0
  0
LINE
  5
202
330
1F
100
AcDbEntity
  8
SLD-0
  6
SLD-DURCHGEHEND
 62
     7
100
AcDbLine
 10
25.7255751466
 20
55.7389490446
 30
0.0
 11
25.7255751466
 21
55.2389490446
 31
0.0
  0
LINE
  5
203
330
1F
100
AcDbEntity
  8
SLD-0
  6
SLD-DURCHGEHEND
 62
     7
100
AcDbLine
 10
25.7255751466
 20
55.7389490446
 30
0.0
 11
25.2255751466
 21
55.7389490446
 31
0.0
  0
LINE
  5
204
330
1F
100
AcDbEntity
  8
SLD-0
  6
SLD-DURCHGEHEND
 62
     7
100
AcDbLine
 10
25.2255751466
 20
55.2389490446
 30
0.0
 11
25.2255751466
 21
55.7389490446
 31
0.0
  0
LINE
  5
205
330
1F
100
AcDbEntity
  8
SLD-0
  6
SLD-DURCHGEHEND
 62
     7
100
AcDbLine
 10
42.2255751466
 20
55.2389490446
 30
0.0
 11
42.2255751466
 21
55.7389490446
 31
0.0
  0
LINE
  5
206
330
1F
100
AcDbEntity
  8
SLD-0
  6
SLD-DURCHGEHEND
 62
     7
100
AcDbLine
 10
42.2255751466
 20
55.7389490446
 30
0.0
 11
42.2255751466
 21
56.2389490446
 31
0.0
  0
LINE
  5
207
330
1F
100
AcDbEntity
  8
SLD-0
  6
SLD-DURCHGEHEND
 62
     7
100
AcDbLine
 10
42.7255751466
 20
55.7389490446
 30
0.0
 11
42.2255751466
 21
55.7389490446
 31
0.0
  0
LINE
  5
208
330
1F
100
AcDbEntity
  8
SLD-0
  6
SLD-DURCHGEHEND
 62
     7
100
AcDbLine
 10
25.7255751466
 20
55.7389490446
 30
0.0
 11
25.7255751466
 21
56.2389490446
 31
0.0
  0
LINE
  5
209
330
1F
100
AcDbEntity
  8
SLD-0
  6
SLD-DURCHGEHEND
 62
     7
100
AcDbLine
 10
42.7255751466
 20
55.7389490446
 30
0.0
 11
42.7255751466
 21
55.2389490446
 31
0.0
  0
LINE
  5
20A
330
1F
100
AcDbEntity
  8
SLD-0
  6
SLD-DURCHGEHEND
 62
     7
100
AcDbLine
 10
25.7255751466
 20
56.2389490446
 30
0.0
 11
42.2255751466
 21
56.2389490446
 31
0.0
  0
LINE
  5
20B
330
1F
100
AcDbEntity
  8
SLD-0
  6
SLD-DURCHGEHEND
 62
     7
100
AcDbLine
 10
28.8755751466
 20
55.7389490446
 30
0.0
 11
28.8755751466
 21
54.7389490446
 31
0.0
  0
LINE
  5
20C
330
1F
100
AcDbEntity
  8
SLD-0
  6
SLD-DURCHGEHEND
 62
     7
100
AcDbLine
 10
28.8755751466
 20
55.7389490446
 30
0.0
 11
39.0755751466
 21
55.7389490446
 31
0.0
  0
LINE
  5
20D
330
1F
100
AcDbEntity
  8
SLD-0
  6
SLD-DURCHGEHEND
 62
     7
100
AcDbLine
 10
39.0755751466
 20
55.7389490446
 30
0.0
 11
39.0755751466
 21
54.7389490446
 31
0.0
  0
LINE
  5
20E
330
1F
100
AcDbEntity
  8
SLD-0
  6
SLD-DURCHGEHEND
 62
     8
100
AcDbLine
 10
25.7255751466
 20
55.2389490446
 30
0.0
 11
28.8755751466
 21
55.2389490446
 31
0.0
  0
LINE
  5
20F
330
1F
100
AcDbEntity
  8
SLD-0
  6
SLD-DURCHGEHEND
 62
     8
100
AcDbLine
 10
39.0755751466
 20
55.2389490446
 30
0.0
 11
42.2255751466
 21
55.2389490446
 31
0.0
  0
LINE
  5
210
330
1F
100
AcDbEntity
  8
SLD-0
  6
SLD-DURCHGEHEND
 62
     8
100
AcDbLine
 10
42.2255751466
 20
55.7389490446
 30
0.0
 11
39.0755751466
 21
55.7389490446
 31
0.0
  0
LINE
  5
211
330
1F
100
AcDbEntity
  8
SLD-0
  6
SLD-DURCHGEHEND
 62
     8
100
AcDbLine
 10
28.8755751466
 20
55.7389490446
 30
0.0
 11
25.7255751466
 21
55.7389490446
 31
0.0
  0
LINE
  5
212
330
1F
100
AcDbEntity
  8
SLD-0
  6
SLD-DURCHGEHEND
 62
     7
100
AcDbLine
 10
25.2255751466
 20
31.8418152866
 30
0.0
 11
25.2255751466
 21
34.5918152866
 31
0.0
  0
LINE
  5
213
330
1F
100
AcDbEntity
  8
SLD-0
  6
SLD-DURCHGEHEND
 62
     7
100
AcDbLine
 10
25.2255751466
 20
34.5918152866
 30
0.0
 11
25.7255751466
 21
34.5918152866
 31
0.0
  0
LINE
  5
214
330
1F
100
AcDbEntity
  8
SLD-0
  6
SLD-DURCHGEHEND
 62
     7
100
AcDbLine
 10
25.7255751466
 20
34.5918152866
 30
0.0
 11
25.7255751466
 21
31.8418152866
 31
0.0
  0
LINE
  5
215
330
1F
100
AcDbEntity
  8
SLD-0
  6
SLD-DURCHGEHEND
 62
     7
100
AcDbLine
 10
25.7255751466
 20
31.8418152866
 30
0.0
 11
25.2255751466
 21
31.8418152866
 31
0.0
  0
LINE
  5
216
330
1F
100
AcDbEntity
  8
SLD-0
  6
SLD-DURCHGEHEND
 62
     7
100
AcDbLine
 10
42.2255751466
 20
31.8418152866
 30
0.0
 11
42.2255751466
 21
34.5918152866
 31
0.0
  0
LINE
  5
217
330
1F
100
AcDbEntity
  8
SLD-0
  6
SLD-DURCHGEHEND
 62
     7
100
AcDbLine
 10
42.2255751466
 20
34.5918152866
 30
0.0
 11
42.7255751466
 21
34.5918152866
 31
0.0
  0
LINE
  5
218
330
1F
100
AcDbEntity
  8
SLD-0
  6
SLD-DURCHGEHEND
 62
     7
100
AcDbLine
 10
42.7255751466
 20
34.5918152866
 30
0.0
 11
42.7255751466
 21
31.8418152866
 31
0.0
  0
LINE
  5
219
330
1F
100
AcDbEntity
  8
SLD-0
  6
SLD-DURCHGEHEND
 62
     7
100
AcDbLine
 10
42.7255751466
 20
31.8418152866
 30
0.0
 11
42.2255751466
 21
31.8418152866
 31
0.0
  0
LINE
  5
21A
330
1F
100
AcDbEntity
  8
SLD-0
  6
SLD-DURCHGEHEND
 62
     7
100
AcDbLine
 10
25.7255751466
 20
35.0918152866
 30
0.0
 11
42.2255751466
 21
35.0918152866
 31
0.0
  0
LINE
  5
21B
330
1F
100
AcDbEntity
  8
SLD-0
  6
SLD-DURCHGEHEND
 62
     7
100
AcDbLine
 10
42.2255751466
 20
35.0918152866
 30
0.0
 11
42.2255751466
 21
34.5918152866
 31
0.0
  0
LINE
  5
21C
330
1F
100
AcDbEntity
  8
SLD-0
  6
SLD-DURCHGEHEND
 62
     7
100
AcDbLine
 10
42.2255751466
 20
34.5918152866
 30
0.0
 11
25.7255751466
 21
34.5918152866
 31
0.0
  0
LINE
  5
21D
330
1F
100
AcDbEntity
  8
SLD-0
  6
SLD-DURCHGEHEND
 62
     7
100
AcDbLine
 10
25.7255751466
 20
35.0918152866
 30
0.0
 11
25.7255751466
 21
34.5918152866
 31
0.0
  0
LINE
  5
21E
330
1F
100
AcDbEntity
  8
SLD-0
  6
SLD-DURCHGEHEND
 62
     7
100
AcDbLine
 10
25.7255751466
 20
31.8418152866
 30
0.0
 11
42.2255751466
 21
31.8418152866
 31
0.0
  0
LINE
  5
21F
330
1F
100
AcDbEntity
  8
SLD-0
  6
SLD-DURCHGEHEND
 62
     7
100
AcDbLine
 10
25.2255751466
 20
28.8418152866
 30
0.0
 11
42.7255751466
 21
28.8418152866
 31
0.0
  0
LINE
  5
220
330
1F
100
AcDbEntity
  8
SLD-0
  6
SLD-DURCHGEHEND
 62
     7
100
AcDbLine
 10
42.7255751466
 20
31.8418152866
 30
0.0
 11
42.7255751466
 21
28.8418152866
 31
0.0
  0
LINE
  5
221
330
1F
100
AcDbEntity
  8
SLD-0
  6
SLD-DURCHGEHEND
 62
     7
100
AcDbLine
 10
25.2255751466
 20
31.8418152866
 30
0.0
 11
25.2255751466
 21
28.8418152866
 31
0.0
  0
LINE
  5
222
330
1F
100
AcDbEntity
  8
SLD-0
  6
SLD-DURCHGEHEND
 62
     7
100
AcDbLine
 10
24.7255751466
 20
33.0918152866
 30
0.0
 11
25.2255751466
 21
33.0918152866
 31
0.0
  0
LINE
  5
223
330
1F
100
AcDbEntity
  8
SLD-0
  6
SLD-DURCHGEHEND
 62
     7
100
AcDbLine
 10
24.7255751466
 20
33.5918152866
 30
0.0
 11
24.7255751466
 21
33.0918152866
 31
0.0
  0
LINE
  5
224
330
1F
100
AcDbEntity
  8
SLD-0
  6
SLD-DURCHGEHEND
 62
     7
100
AcDbLine
 10
25.2255751466
 20
33.5918152866
 30
0.0
 11
24.7255751466
 21
33.5918152866
 31
0.0
  0
LINE
  5
225
330
1F
100
AcDbEntity
  8
SLD-0
  6
SLD-DURCHGEHEND
 62
     7
100
AcDbLine
 10
43.2255751466
 20
31.7418152866
 30
0.0
 11
43.2255751466
 21
32.2418152866
 31
0.0
  0
LINE
  5
226
330
1F
100
AcDbEntity
  8
SLD-0
  6
SLD-DURCHGEHEND
 62
     7
100
AcDbLine
 10
43.2255751466
 20
32.2418152866
 30
0.0
 11
42.7255751466
 21
32.2418152866
 31
0.0
  0
LINE
  5
227
330
1F
100
AcDbEntity
  8
SLD-0
  6
SLD-DURCHGEHEND
 62
     7
100
AcDbLine
 10
24.7255751466
 20
31.7418152866
 30
0.0
 11
24.7255751466
 21
33.0918152866
 31
0.0
  0
LINE
  5
228
330
1F
100
AcDbEntity
  8
SLD-0
  6
SLD-DURCHGEHEND
 62
     7
100
AcDbLine
 10
43.2255751466
 20
33.5918152866
 30
0.0
 11
43.2255751466
 21
33.0918152866
 31
0.0
  0
LINE
  5
229
330
1F
100
AcDbEntity
  8
SLD-0
  6
SLD-DURCHGEHEND
 62
     7
100
AcDbLine
 10
43.2255751466
 20
33.0918152866
 30
0.0
 11
42.7255751466
 21
33.0918152866
 31
0.0
  0
LINE
  5
22A
330
1F
100
AcDbEntity
  8
SLD-0
  6
SLD-DURCHGEHEND
 62
     7
100
AcDbLine
 10
43.2255751466
 20
33.5918152866
 30
0.0
 11
42.7255751466
 21
33.5918152866
 31
0.0
  0
LINE
  5
22B
330
1F
100
AcDbEntity
  8
SLD-0
  6
SLD-DURCHGEHEND
 62
     7
100
AcDbLine
 10
43.2255751466
 20
33.0918152866
 30
0.0
 11
43.2255751466
 21
32.2418152866
 31
0.0
  0
LINE
  5
22C
330
1F
100
AcDbEntity
  8
SLD-0
  6
SLD-DURCHGEHEND
 62
     7
100
AcDbLine
 10
24.7255751466
 20
33.0918152866
 30
0.0
 11
24.2255751466
 21
33.0918152866
 31
0.0
  0
LINE
  5
22D
330
1F
100
AcDbEntity
  8
SLD-0
  6
SLD-DURCHGEHEND
 62
     7
100
AcDbLine
 10
24.2255751466
 20
33.5918152866
 30
0.0
 11
24.2255751466
 21
33.0918152866
 31
0.0
  0
LINE
  5
22E
330
1F
100
AcDbEntity
  8
SLD-0
  6
SLD-DURCHGEHEND
 62
     7
100
AcDbLine
 10
24.2255751466
 20
33.5918152866
 30
0.0
 11
24.7255751466
 21
33.5918152866
 31
0.0
  0
LINE
  5
22F
330
1F
100
AcDbEntity
  8
SLD-0
  6
SLD-DURCHGEHEND
 62
     7
100
AcDbLine
 10
44.2255751466
 20
33.0918152866
 30
0.0
 11
43.2255751466
 21
33.0918152866
 31
0.0
  0
LINE
  5
230
330
1F
100
AcDbEntity
  8
SLD-0
  6
SLD-DURCHGEHEND
 62
     7
100
AcDbLine
 10
44.2255751466
 20
33.0918152866
 30
0.0
 11
44.2255751466
 21
32.2418152866
 31
0.0
  0
LINE
  5
231
330
1F
100
AcDbEntity
  8
SLD-0
  6
SLD-DURCHGEHEND
 62
     7
100
AcDbLine
 10
43.2255751466
 20
32.2418152866
 30
0.0
 11
44.2255751466
 21
32.2418152866
 31
0.0
  0
LINE
  5
232
330
1F
100
AcDbEntity
  8
SLD-0
  6
SLD-DURCHGEHEND
 62
     7
100
AcDbLine
 10
43.2255751466
 20
33.5918152866
 30
0.0
 11
43.7255751466
 21
33.5918152866
 31
0.0
  0
LINE
  5
233
330
1F
100
AcDbEntity
  8
SLD-0
  6
SLD-DURCHGEHEND
 62
     7
100
AcDbLine
 10
23.7255751466
 20
33.0918152866
 30
0.0
 11
24.2255751466
 21
33.0918152866
 31
0.0
  0
LINE
  5
234
330
1F
100
AcDbEntity
  8
SLD-0
  6
SLD-DURCHGEHEND
 62
     7
100
AcDbLine
 10
43.7255751466
 20
31.7418152866
 30
0.0
 11
43.2255751466
 21
31.7418152866
 31
0.0
  0
LINE
  5
235
330
1F
100
AcDbEntity
  8
SLD-0
  6
SLD-DURCHGEHEND
 62
     7
100
AcDbLine
 10
23.7255751466
 20
32.2418152866
 30
0.0
 11
23.7255751466
 21
33.0918152866
 31
0.0
  0
LINE
  5
236
330
1F
100
AcDbEntity
  8
SLD-0
  6
SLD-DURCHGEHEND
 62
     7
100
AcDbLine
 10
24.2255751466
 20
33.0918152866
 30
0.0
 11
24.2255751466
 21
31.7418152866
 31
0.0
  0
LINE
  5
237
330
1F
100
AcDbEntity
  8
SLD-0
  6
SLD-DURCHGEHEND
 62
     7
100
AcDbLine
 10
24.2255751466
 20
31.7418152866
 30
0.0
 11
24.7255751466
 21
31.7418152866
 31
0.0
  0
ARC
  5
238
330
1F
100
AcDbEntity
  8
SLD-0
  6
SLD-DURCHGEHEND
 62
     7
100
AcDbCircle
 10
39.4884875246
 20
81.3891401274
 30
0.0
 40
0.5
100
AcDbArc
 50
0.0
 51
90.0
  0
ARC
  5
239
330
1F
100
AcDbEntity
  8
SLD-0
  6
SLD-DURCHGEHEND
 62
     7
100
AcDbCircle
 10
23.4884875246
 20
81.3891401274
 30
0.0
 40
0.5
100
AcDbArc
 50
90.0
 51
180.0
  0
ARC
  5
23A
330
1F
100
AcDbEntity
  8
SLD-0
  6
SLD-DURCHGEHEND
 62
     7
100
AcDbCircle
 10
23.4884875246
 20
80.5391401274
 30
0.0
 40
0.5
100
AcDbArc
 50
180.0
 51
270.0
  0
ARC
  5
23B
330
1F
100
AcDbEntity
  8
SLD-0
  6
SLD-DURCHGEHEND
 62
     7
100
AcDbCircle
 10
23.4884875246
 20
80.5391401274
 30
0.0
 40
1.000000000000004
100
AcDbArc
 50
180.0
 51
270.0
  0
ARC
  5
23C
330
1F
100
AcDbEntity
  8
SLD-0
  6
SLD-DURCHGEHEND
 62
     7
100
AcDbCircle
 10
51.4884875246
 20
82.8891401274
 30
0.0
 40
0.5
100
AcDbArc
 50
0.0
 51
90.0
  0
ARC
  5
23D
330
1F
100
AcDbEntity
  8
SLD-0
  6
SLD-DURCHGEHEND
 62
     7
100
AcDbCircle
 10
50.6384875246
 20
82.8891401274
 30
0.0
 40
0.5
100
AcDbArc
 50
90.0
 51
180.0
  0
ARC
  5
23E
330
1F
100
AcDbEntity
  8
SLD-0
  6
SLD-DURCHGEHEND
 62
     7
100
AcDbCircle
 10
49.6384875246
 20
82.3891401274
 30
0.0
 40
0.5
100
AcDbArc
 50
270.0
 51
0.0
  0
ARC
  5
23F
330
1F
100
AcDbEntity
  8
SLD-0
  6
SLD-DURCHGEHEND
 62
     7
100
AcDbCircle
 10
49.6384875246
 20
82.3891401274
 30
0.0
 40
1.0
100
AcDbArc
 50
270.0
 51
0.0
  0
ARC
  5
240
330
1F
100
AcDbEntity
  8
SLD-0
  6
SLD-DURCHGEHEND
 62
     7
100
AcDbCircle
 10
25.4884875246
 20
99.6391401274
 30
0.0
 40
22.5
100
AcDbArc
 50
234.2046324563
 51
270.0
  0
ARC
  5
241
330
1F
100
AcDbEntity
  8
SLD-0
  6
SLD-DURCHGEHEND
 62
     7
100
AcDbCircle
 10
63.5175496689
 20
92.4247595118
 30
0.0
 40
0.5
100
AcDbArc
 50
180.0
 51
270.0
  0
ARC
  5
242
330
1F
100
AcDbEntity
  8
SLD-0
  6
SLD-DURCHGEHEND
 62
     7
100
AcDbCircle
 10
80.0175496688
 20
93.2747595118
 30
0.0
 40
0.5
100
AcDbArc
 50
0.0
 51
90.0
  0
ARC
  5
243
330
1F
100
AcDbEntity
  8
SLD-0
  6
SLD-DURCHGEHEND
 62
     7
100
AcDbCircle
 10
63.5175496689
 20
93.2747595118
 30
0.0
 40
0.5
100
AcDbArc
 50
90.0
 51
180.0
  0
ARC
  5
244
330
1F
100
AcDbEntity
  8
SLD-0
  6
SLD-DURCHGEHEND
 62
     7
100
AcDbCircle
 10
80.0175496688
 20
92.4247595118
 30
0.0
 40
0.5
100
AcDbArc
 50
270.0
 51
0.0
  0
ARC
  5
245
330
1F
100
AcDbEntity
  8
SLD-0
  6
SLD-DURCHGEHEND
 62
     7
100
AcDbCircle
 10
62.5175496689
 20
82.2747595118
 30
0.0
 40
1.0
100
AcDbArc
 50
270.0
 51
0.0
  0
ARC
  5
246
330
1F
100
AcDbEntity
  8
SLD-0
  6
SLD-DURCHGEHEND
 62
     7
100
AcDbCircle
 10
81.0175496688
 20
82.2747595118
 30
0.0
 40
1.0
100
AcDbArc
 50
180.0
 51
270.0
  0
ARC
  5
247
330
1F
100
AcDbEntity
  8
SLD-0
  6
SLD-DURCHGEHEND
 62
     7
100
AcDbCircle
 10
81.0175496689
 20
64.2747595118
 30
0.0
 40
1.000000000024215
100
AcDbArc
 50
90.0
 51
180.0
  0
ARC
  5
248
330
1F
100
AcDbEntity
  8
SLD-0
  6
SLD-DURCHGEHEND
 62
     7
100
AcDbCircle
 10
62.5175496689
 20
64.2747595118
 30
0.0
 40
1.000000000000014
100
AcDbArc
 50
0.0
 51
90.0
  0
ARC
  5
249
330
1F
100
AcDbEntity
  8
SLD-0
  6
SLD-DURCHGEHEND
 62
     7
100
AcDbCircle
 10
62.0175496689
 20
65.2747595118
 30
0.0
 40
0.5000000000000142
100
AcDbArc
 50
180.0
 51
270.0
  0
ARC
  5
24A
330
1F
100
AcDbEntity
  8
SLD-0
  6
SLD-DURCHGEHEND
 62
     7
100
AcDbCircle
 10
81.5175496689
 20
65.2747595118
 30
0.0
 40
0.5000000000242153
100
AcDbArc
 50
270.0
 51
0.0
  0
ARC
  5
24B
330
1F
100
AcDbEntity
  8
SLD-0
  6
SLD-DURCHGEHEND
 62
     7
100
AcDbCircle
 10
62.5175496689
 20
64.2747595118
 30
0.0
 40
0.5
100
AcDbArc
 50
0.0
 51
90.0
  0
ARC
  5
24C
330
1F
100
AcDbEntity
  8
SLD-0
  6
SLD-DURCHGEHEND
 62
     7
100
AcDbCircle
 10
81.0175496689
 20
64.2747595118
 30
0.0
 40
0.5
100
AcDbArc
 50
90.0
 51
180.0
  0
ARC
  5
24D
330
1F
100
AcDbEntity
  8
SLD-0
  6
SLD-DURCHGEHEND
 62
     7
100
AcDbCircle
 10
62.5175496689
 20
82.2747595118
 30
0.0
 40
0.5
100
AcDbArc
 50
270.0
 51
0.0
  0
ARC
  5
24E
330
1F
100
AcDbEntity
  8
SLD-0
  6
SLD-DURCHGEHEND
 62
     7
100
AcDbCircle
 10
81.5175496689
 20
81.2747595118
 30
0.0
 40
0.5
100
AcDbArc
 50
0.0
 51
90.0
  0
ARC
  5
24F
330
1F
100
AcDbEntity
  8
SLD-0
  6
SLD-DURCHGEHEND
 62
     7
100
AcDbCircle
 10
81.0175496688
 20
82.2747595118
 30
0.0
 40
0.5
100
AcDbArc
 50
180.0
 51
270.0
  0
ARC
  5
250
330
1F
100
AcDbEntity
  8
SLD-0
  6
SLD-DURCHGEHEND
 62
     7
100
AcDbCircle
 10
111.0047009851
 20
80.5391401274
 30
0.0
 40
0.5
100
AcDbArc
 50
180.0
 51
270.0
  0
ARC
  5
251
330
1F
100
AcDbEntity
  8
SLD-0
  6
SLD-DURCHGEHEND
 62
     7
100
AcDbCircle
 10
111.0047009851
 20
81.3891401274
 30
0.0
 40
0.5
100
AcDbArc
 50
90.0
 51
180.0
  0
ARC
  5
252
330
1F
100
AcDbEntity
  8
SLD-0
  6
SLD-DURCHGEHEND
 62
     7
100
AcDbCircle
 10
127.0047009851
 20
81.3891401274
 30
0.0
 40
0.5
100
AcDbArc
 50
0.0
 51
90.0
  0
ARC
  5
253
330
1F
100
AcDbEntity
  8
SLD-0
  6
SLD-DURCHGEHEND
 62
     7
100
AcDbCircle
 10
127.0047009851
 20
80.5391401274
 30
0.0
 40
0.5
100
AcDbArc
 50
270.0
 51
0.0
  0
ARC
  5
254
330
1F
100
AcDbEntity
  8
SLD-0
  6
SLD-DURCHGEHEND
 62
     7
100
AcDbCircle
 10
111.0047009851
 20
80.5391401274
 30
0.0
 40
1.0
100
AcDbArc
 50
180.0
 51
270.0
  0
ARC
  5
255
330
1F
100
AcDbEntity
  8
SLD-0
  6
SLD-DURCHGEHEND
 62
     7
100
AcDbCircle
 10
127.0047009851
 20
80.5391401274
 30
0.0
 40
1.0
100
AcDbArc
 50
270.0
 51
0.0
  0
ARC
  5
256
330
1F
100
AcDbEntity
  8
SLD-0
  6
SLD-DURCHGEHEND
 62
     7
100
AcDbCircle
 10
99.8547009851
 20
82.8891401274
 30
0.0
 40
0.5
100
AcDbArc
 50
0.0
 51
90.0
  0
ARC
  5
257
330
1F
100
AcDbEntity
  8
SLD-0
  6
SLD-DURCHGEHEND
 62
     7
100
AcDbCircle
 10
100.8547009851
 20
82.3891401274
 30
0.0
 40
1.0
100
AcDbArc
 50
180.0
 51
270.0
  0
ARC
  5
258
330
1F
100
AcDbEntity
  8
SLD-0
  6
SLD-DURCHGEHEND
 62
     7
100
AcDbCircle
 10
125.0047009851
 20
99.6391401274
 30
0.0
 40
22.5
100
AcDbArc
 50
270.0
 51
305.7953675437
  0
ARC
  5
259
330
1F
100
AcDbEntity
  8
SLD-0
  6
SLD-DURCHGEHEND
 62
     7
100
AcDbCircle
 10
99.0047009851
 20
82.8891401274
 30
0.0
 40
0.5
100
AcDbArc
 50
90.0
 51
180.0
  0
ARC
  5
25A
330
1F
100
AcDbEntity
  8
SLD-0
  6
SLD-DURCHGEHEND
 62
     7
100
AcDbCircle
 10
100.8547009851
 20
82.3891401274
 30
0.0
 40
0.5
100
AcDbArc
 50
180.0
 51
270.0
  0
ARC
  5
25B
330
1F
100
AcDbEntity
  8
SLD-0
  6
SLD-DURCHGEHEND
 62
     7
100
AcDbCircle
 10
124.13027349
 20
33.9894712205
 30
0.0
 40
0.5000000000000121
100
AcDbArc
 50
254.7954868413
 51
314.305033619
  0
ARC
  5
25C
330
1F
100
AcDbEntity
  8
SLD-0
  6
SLD-DURCHGEHEND
 62
     7
100
AcDbCircle
 10
106.8841201173
 20
39.4051983725
 30
0.0
 40
0.5000000000000027
100
AcDbArc
 50
134.3050336194
 51
180.0000000006
  0
ARC
  5
25D
330
1F
100
AcDbEntity
  8
SLD-0
  6
SLD-DURCHGEHEND
 62
     7
100
AcDbCircle
 10
106.8841201173
 20
38.6766061669
 30
0.0
 40
0.500000000000013
100
AcDbArc
 50
180.0
 51
243.3599021526
  0
ARC
  5
25E
330
1F
100
AcDbEntity
  8
SLD-0
  6
SLD-DURCHGEHEND
 62
     7
100
AcDbCircle
 10
131.597399713
 20
42.006207535
 30
0.0
 40
0.5
100
AcDbArc
 50
0.0
 51
74.7954868413
  0
ARC
  5
25F
330
1F
100
AcDbEntity
  8
SLD-0
  6
SLD-DURCHGEHEND
 62
     7
100
AcDbCircle
 10
135.8711171976
 20
49.1186154097
 30
0.0
 40
0.5
100
AcDbArc
 50
0.0
 51
74.7954868413
  0
ARC
  5
260
330
1F
100
AcDbEntity
  8
SLD-0
  6
SLD-DURCHGEHEND
 62
     7
100
AcDbCircle
 10
120.8815271093
 20
52.6974700162
 30
0.0
 40
0.5
100
AcDbArc
 50
134.3050336161
 51
179.9999999966
  0
ARC
  5
261
330
1F
100
AcDbEntity
  8
SLD-0
  6
SLD-DURCHGEHEND
 62
     7
100
AcDbCircle
 10
121.2782181899
 20
53.084652672
 30
0.0
 40
0.50000000001556
100
AcDbArc
 50
74.7954868403
 51
134.3050336213
  0
ARC
  5
262
330
1F
100
AcDbEntity
  8
SLD-0
  6
SLD-DURCHGEHEND
 62
     7
100
AcDbCircle
 10
115.2518487208
 20
48.4731160211
 30
0.0
 40
1.541123765485648
100
AcDbArc
 50
252.6960345908
 51
305.398914916
  0
ARC
  5
263
330
1F
100
AcDbEntity
  8
SLD-0
  6
SLD-DURCHGEHEND
 62
     7
100
AcDbCircle
 10
123.2296711095
 20
33.7954571869
 30
0.0
 40
1.541123765485609
100
AcDbArc
 50
72.6960345908
 51
125.398914916
  0
ARC
  5
264
330
1F
100
AcDbEntity
  8
SLD-0
  6
SLD-DURCHGEHEND
 62
     7
100
AcDbCircle
 10
117.147906268
 20
29.5931958812
 30
0.0
 40
0.5591388080983899
100
AcDbArc
 50
60.4596854675
 51
74.57324363
  0
ARC
  5
265
330
1F
100
AcDbEntity
  8
SLD-0
  6
SLD-DURCHGEHEND
 62
     7
100
AcDbCircle
 10
122.1729738821
 20
34.4669958084
 30
0.0
 40
0.607249664279779
100
AcDbArc
 50
3.3915623185
 51
74.3338098281
  0
ARC
  5
266
330
1F
100
AcDbEntity
  8
SLD-0
  6
SLD-DURCHGEHEND
 62
     7
100
AcDbCircle
 10
133.8716797294
 20
48.1704083294
 30
0.0
 40
2.044992185828465
100
AcDbArc
 50
320.5129436107
 51
0.3434369847
  0
ARC
  5
267
330
1F
100
AcDbEntity
  8
SLD-0
  6
SLD-DURCHGEHEND
 62
     7
100
AcDbCircle
 10
102.5826185618
 20
33.6618823039
 30
0.0
 40
0.4528437082861317
100
AcDbArc
 50
74.4860907525
 51
90.7361230858
  0
ARC
  5
268
330
1F
100
AcDbEntity
  8
SLD-0
  6
SLD-DURCHGEHEND
 62
     7
100
AcDbCircle
 10
123.9662964535
 20
34.5619559731
 30
0.0
 40
0.6072496643114921
100
AcDbArc
 50
3.3915623161
 51
74.3338098234
  0
ARC
  5
269
330
1F
100
AcDbEntity
  8
SLD-0
  6
SLD-DURCHGEHEND
 62
     7
100
AcDbCircle
 10
124.1261224555
 20
35.2259953411
 30
0.0
 40
0.7705618827419657
100
AcDbArc
 50
252.6960345884
 51
305.3989149127
  0
ARC
  5
26A
330
1F
100
AcDbEntity
  8
SLD-0
  6
SLD-DURCHGEHEND
 62
     7
100
AcDbCircle
 10
124.9194035198
 20
34.4964378361
 30
0.0
 40
1.022496092894267
100
AcDbArc
 50
140.5129436104
 51
180.3434369825
  0
ARC
  5
26B
330
1F
100
AcDbEntity
  8
SLD-0
  6
SLD-DURCHGEHEND
 62
     7
100
AcDbCircle
 10
124.4771944589
 20
34.6166207835
 30
0.0
 40
1.02249609293186
100
AcDbArc
 50
140.5129436112
 51
180.343436984
  0
ARC
  5
26C
330
1F
100
AcDbEntity
  8
SLD-0
  6
SLD-DURCHGEHEND
 62
     7
100
AcDbCircle
 10
123.2255200749
 20
33.8748054517
 30
0.0
 40
0.7705618827236035
100
AcDbArc
 50
72.6960345873
 51
125.3989149121
  0
ARC
  5
26D
330
1F
100
AcDbEntity
  8
SLD-0
  6
SLD-DURCHGEHEND
 62
     7
100
AcDbCircle
 10
124.1261224555
 20
34.4974031356
 30
0.0
 40
0.7705618827700917
100
AcDbArc
 50
252.6960345913
 51
305.3989149139
  0
ARC
  5
26E
330
1F
100
AcDbEntity
  8
SLD-0
  6
SLD-DURCHGEHEND
 62
     7
100
AcDbCircle
 10
123.2255200749
 20
33.1462132461
 30
0.0
 40
0.7705618827257493
100
AcDbArc
 50
72.6960345881
 51
125.3989149128
  0
ARC
  5
26F
330
1F
100
AcDbEntity
  8
SLD-0
  6
SLD-DURCHGEHEND
 62
     7
100
AcDbCircle
 10
131.4334226763
 20
41.8501000821
 30
0.0
 40
0.6072496643115571
100
AcDbArc
 50
3.3915623147
 51
74.3338098185
  0
ARC
  5
270
330
1F
100
AcDbEntity
  8
SLD-0
  6
SLD-DURCHGEHEND
 62
     7
100
AcDbCircle
 10
108.1154592079
 20
39.0633898351
 30
0.0
 40
1.022496092912557
100
AcDbArc
 50
140.512943608
 51
180.3434369829
  0
ARC
  5
271
330
1F
100
AcDbEntity
  8
SLD-0
  6
SLD-DURCHGEHEND
 62
     7
100
AcDbCircle
 10
107.673250147
 20
39.1835727824
 30
0.0
 40
1.022496092920539
100
AcDbArc
 50
140.5129436068
 51
180.3434369811
  0
ARC
  5
272
330
1F
100
AcDbEntity
  8
SLD-0
  6
SLD-DURCHGEHEND
 62
     7
100
AcDbCircle
 10
130.5734908828
 20
42.6661579308
 30
0.0
 40
0.6072496643286693
100
AcDbArc
 50
3.3915623142
 51
74.3338098212
  0
ARC
  5
273
330
1F
100
AcDbEntity
  8
SLD-0
  6
SLD-DURCHGEHEND
 62
     7
100
AcDbCircle
 10
134.8437536915
 20
46.8340653431
 30
0.0
 40
0.6072496642984486
100
AcDbArc
 50
3.391562317
 51
74.3338098235
  0
ARC
  5
274
330
1F
100
AcDbEntity
  8
SLD-0
  6
SLD-DURCHGEHEND
 62
     7
100
AcDbCircle
 10
136.2635561467
 20
48.509807164
 30
0.0
 40
1.022496092917712
100
AcDbArc
 50
140.5129436119
 51
180.3434369851
  0
ARC
  5
275
330
1F
100
AcDbEntity
  8
SLD-0
  6
SLD-DURCHGEHEND
 62
     7
100
AcDbCircle
 10
135.3104490804
 20
48.575325301
 30
0.0
 40
0.6072496642981888
100
AcDbArc
 50
3.3915623166
 51
74.3338098231
  0
ARC
  5
276
330
1F
100
AcDbEntity
  8
SLD-0
  6
SLD-DURCHGEHEND
 62
     7
100
AcDbCircle
 10
135.4702750823
 20
49.239364669
 30
0.0
 40
0.7705618827278974
100
AcDbArc
 50
252.6960345939
 51
305.3989149181
  0
ARC
  5
277
330
1F
100
AcDbEntity
  8
SLD-0
  6
SLD-DURCHGEHEND
 62
     7
100
AcDbCircle
 10
134.2186006984
 20
48.0689656867
 30
0.0
 40
1.022496092912471
100
AcDbArc
 50
320.5129436093
 51
0.3434369841
  0
ARC
  5
278
330
1F
100
AcDbEntity
  8
SLD-0
  6
SLD-DURCHGEHEND
 62
     7
100
AcDbCircle
 10
135.4702750823
 20
48.8107810186
 30
0.0
 40
0.7705618827578867
100
AcDbArc
 50
252.696034595
 51
305.398914917
  0
ARC
  5
279
330
1F
100
AcDbEntity
  8
SLD-0
  6
SLD-DURCHGEHEND
 62
     7
100
AcDbCircle
 10
121.670657139
 20
52.4758444262
 30
0.0
 40
1.022496092925686
100
AcDbArc
 50
140.5129436077
 51
180.3434369811
  0
ARC
  5
27A
330
1F
100
AcDbEntity
  8
SLD-0
  6
SLD-DURCHGEHEND
 62
     7
100
AcDbCircle
 10
119.6257016906
 20
52.035002949
 30
0.0
 40
1.02249609293193
100
AcDbArc
 50
320.5129436141
 51
0.3434369871
  0
ARC
  5
27B
330
1F
100
AcDbEntity
  8
SLD-0
  6
SLD-DURCHGEHEND
 62
     7
100
AcDbCircle
 10
135.707140161
 20
48.9625079568
 30
0.0
 40
0.6072496643036887
100
AcDbArc
 50
3.3915623159
 51
74.3338098209
  0
ARC
  5
27C
330
1F
100
AcDbEntity
  8
SLD-0
  6
SLD-DURCHGEHEND
 62
     7
100
AcDbCircle
 10
136.2051892832
 20
46.767207015
 30
0.0
 40
0.1660293115214449
100
AcDbArc
 50
310.6406361862
 51
357.9974644831
  0
ARC
  5
27D
330
1F
100
AcDbEntity
  8
SLD-0
  6
SLD-DURCHGEHEND
 62
     8
100
AcDbCircle
 10
107.631038686
 20
38.6783137448
 30
0.0
 40
0.3577309442254096
100
AcDbArc
 50
71.583829309
 51
131.3261927557
  0
ARC
  5
27E
330
1F
100
AcDbEntity
  8
SLD-0
  6
SLD-DURCHGEHEND
 62
     8
100
AcDbCircle
 10
124.1478789004
 20
33.7145324913
 30
0.0
 40
0.2553503710063131
100
AcDbArc
 50
169.351560421
 51
234.3744174849
  0
ARC
  5
27F
330
1F
100
AcDbEntity
  8
SLD-0
  6
SLD-DURCHGEHEND
 62
     8
100
AcDbCircle
 10
124.2498225861
 20
33.8585209138
 30
0.0
 40
0.3228395714720478
100
AcDbArc
 50
315.3544713514
 51
1.9112857755
  0
ARC
  5
280
330
1F
100
AcDbEntity
  8
SLD-0
  6
SLD-DURCHGEHEND
 62
     8
100
AcDbCircle
 10
123.7055298171
 20
33.8346968877
 30
0.0
 40
0.2552161914613007
100
AcDbArc
 50
169.3416588612
 51
234.4201812851
  0
ARC
  5
281
330
1F
100
AcDbEntity
  8
SLD-0
  6
SLD-DURCHGEHEND
 62
     8
100
AcDbCircle
 10
123.5684630811
 20
33.383447726
 30
0.0
 40
0.3227877006078946
100
AcDbArc
 50
135.2786753412
 51
181.9134671003
  0
ARC
  5
282
330
1F
100
AcDbEntity
  8
SLD-0
  6
SLD-DURCHGEHEND
 62
     8
100
AcDbCircle
 10
107.028306266
 20
38.6831567915
 30
0.0
 40
0.3796535051545031
100
AcDbArc
 50
34.107663585
 51
80.1916401986
  0
ARC
  5
283
330
1F
100
AcDbEntity
  8
SLD-0
  6
SLD-DURCHGEHEND
 62
     8
100
AcDbCircle
 10
106.7699748601
 20
39.4999581601
 30
0.0
 40
0.3527995338246648
100
AcDbArc
 50
71.1227700773
 51
131.7872519932
  0
ARC
  5
284
330
1F
100
AcDbEntity
  8
SLD-0
  6
SLD-DURCHGEHEND
 62
     8
100
AcDbCircle
 10
107.0829165996
 20
38.4290309503
 30
0.0
 40
0.4325984860854744
100
AcDbArc
 50
177.3739137792
 51
203.6222811035
  0
ARC
  5
285
330
1F
100
AcDbEntity
  8
SLD-0
  6
SLD-DURCHGEHEND
 62
     8
100
AcDbCircle
 10
131.7067536372
 20
42.3552461786
 30
0.0
 40
0.1352245867141981
100
AcDbArc
 50
80.7318299849
 51
143.9675277061
  0
ARC
  5
286
330
1F
100
AcDbEntity
  8
SLD-0
  6
SLD-DURCHGEHEND
 62
     8
100
AcDbCircle
 10
131.9314717986
 20
42.0120092172
 30
0.0
 40
0.1660293115239624
100
AcDbArc
 50
310.6406361752
 51
357.9974644768
  0
ARC
  5
287
330
1F
100
AcDbEntity
  8
SLD-0
  6
SLD-DURCHGEHEND
 62
     8
100
AcDbCircle
 10
131.2645445764
 20
42.4754291259
 30
0.0
 40
0.1352245866823848
100
AcDbArc
 50
80.7318299752
 51
143.9675277216
  0
ARC
  5
288
330
1F
100
AcDbEntity
  8
SLD-0
  6
SLD-DURCHGEHEND
 62
     8
100
AcDbCircle
 10
116.0304215195
 20
46.8829960986
 30
0.0
 40
0.3528629923432642
100
AcDbArc
 50
71.1259269615
 51
131.7229046876
  0
ARC
  5
289
330
1F
100
AcDbEntity
  8
SLD-0
  6
SLD-DURCHGEHEND
 62
     8
100
AcDbCircle
 10
114.902958999
 20
46.9219641602
 30
0.0
 40
0.1354833224082521
100
AcDbArc
 50
81.0206254799
 51
143.9247297081
  0
ARC
  5
28A
330
1F
100
AcDbEntity
  8
SLD-0
  6
SLD-DURCHGEHEND
 62
     8
100
AcDbCircle
 10
120.3006864631
 20
51.050969846
 30
0.0
 40
0.3527995338230975
100
AcDbArc
 50
71.1227700698
 51
131.787251994
  0
ARC
  5
28B
330
1F
100
AcDbEntity
  8
SLD-0
  6
SLD-DURCHGEHEND
 62
     8
100
AcDbCircle
 10
135.9804711219
 20
49.4676540533
 30
0.0
 40
0.1352245867142099
100
AcDbArc
 50
80.7318299896
 51
143.9675277097
  0
ARC
  5
28C
330
1F
100
AcDbEntity
  8
SLD-0
  6
SLD-DURCHGEHEND
 62
     8
100
AcDbCircle
 10
136.2051892832
 20
49.1244170919
 30
0.0
 40
0.1660293115412581
100
AcDbArc
 50
310.6406361892
 51
357.9974644801
  0
ARC
  5
28D
330
1F
100
AcDbEntity
  8
SLD-0
  6
SLD-DURCHGEHEND
 62
     8
100
AcDbCircle
 10
121.3875721142
 20
53.4336913156
 30
0.0
 40
0.1352245867379643
100
AcDbArc
 50
80.7318299945
 51
143.9675277107
  0
ARC
  5
28E
330
1F
100
AcDbEntity
  8
SLD-0
  6
SLD-DURCHGEHEND
 62
     8
100
AcDbCircle
 10
120.767381852
 20
52.7922298038
 30
0.0
 40
0.3527995338267467
100
AcDbArc
 50
71.1227700756
 51
131.7872519949
  0
ARC
  5
28F
330
1F
100
AcDbEntity
  8
SLD-0
  6
SLD-DURCHGEHEND
 62
     8
100
AcDbCircle
 10
121.1640729326
 20
53.1794124596
 30
0.0
 40
0.3527995338739525
100
AcDbArc
 50
71.1227700822
 51
131.7872519917
  0
ARC
  5
290
330
1F
100
AcDbEntity
  8
SLD-0
  6
SLD-DURCHGEHEND
 62
     7
100
AcDbCircle
 10
25.7255751466
 20
54.2389490446
 30
0.0
 40
0.4999999999959925
100
AcDbArc
 50
90.0
 51
106.6820901465
  0
ARC
  5
291
330
1F
100
AcDbEntity
  8
SLD-0
  6
SLD-DURCHGEHEND
 62
     7
100
AcDbCircle
 10
42.2255751466
 20
54.2389490446
 30
0.0
 40
0.4999999999930965
100
AcDbArc
 50
73.3179098534
 51
89.9999999944
  0
ARC
  5
292
330
1F
100
AcDbEntity
  8
SLD-0
  6
SLD-DURCHGEHEND
 62
     7
100
AcDbCircle
 10
24.7255751466
 20
52.3889490446
 30
0.0
 40
0.5
100
AcDbArc
 50
0.0
 51
90.0
  0
ARC
  5
293
330
1F
100
AcDbEntity
  8
SLD-0
  6
SLD-DURCHGEHEND
 62
     7
100
AcDbCircle
 10
43.2255751466
 20
52.3889490446
 30
0.0
 40
0.5
100
AcDbArc
 50
90.0
 51
180.0
  0
ARC
  5
294
330
1F
100
AcDbEntity
  8
SLD-0
  6
SLD-DURCHGEHEND
 62
     7
100
AcDbCircle
 10
24.2255751466
 20
53.3889490446
 30
0.0
 40
0.5
100
AcDbArc
 50
180.0
 51
270.0
  0
ARC
  5
295
330
1F
100
AcDbEntity
  8
SLD-0
  6
SLD-DURCHGEHEND
 62
     7
100
AcDbCircle
 10
24.2255751466
 20
54.2389490446
 30
0.0
 40
0.5
100
AcDbArc
 50
90.0
 51
180.0
  0
ARC
  5
296
330
1F
100
AcDbEntity
  8
SLD-0
  6
SLD-DURCHGEHEND
 62
     7
100
AcDbCircle
 10
43.7255751466
 20
54.2389490446
 30
0.0
 40
0.5
100
AcDbArc
 50
0.0
 51
90.0
  0
ARC
  5
297
330
1F
100
AcDbEntity
  8
SLD-0
  6
SLD-DURCHGEHEND
 62
     7
100
AcDbCircle
 10
43.7255751466
 20
53.3889490446
 30
0.0
 40
0.5
100
AcDbArc
 50
270.0
 51
0.0
  0
ARC
  5
298
330
1F
100
AcDbEntity
  8
SLD-0
  6
SLD-DURCHGEHEND
 62
     7
100
AcDbCircle
 10
42.2255751466
 20
55.7389490446
 30
0.0
 40
0.5
100
AcDbArc
 50
0.0
 51
90.0
  0
ARC
  5
299
330
1F
100
AcDbEntity
  8
SLD-0
  6
SLD-DURCHGEHEND
 62
     7
100
AcDbCircle
 10
25.7255751466
 20
55.7389490446
 30
0.0
 40
0.5
100
AcDbArc
 50
90.0
 51
180.0
  0
ARC
  5
29A
330
1F
100
AcDbEntity
  8
SLD-0
  6
SLD-DURCHGEHEND
 62
     7
100
AcDbCircle
 10
25.7255751466
 20
34.5918152866
 30
0.0
 40
0.5
100
AcDbArc
 50
90.0
 51
180.0
  0
ARC
  5
29B
330
1F
100
AcDbEntity
  8
SLD-0
  6
SLD-DURCHGEHEND
 62
     7
100
AcDbCircle
 10
42.2255751466
 20
34.5918152866
 30
0.0
 40
0.5
100
AcDbArc
 50
0.0
 51
90.0
  0
ARC
  5
29C
330
1F
100
AcDbEntity
  8
SLD-0
  6
SLD-DURCHGEHEND
 62
     7
100
AcDbCircle
 10
43.2255751466
 20
31.2418152866
 30
0.0
 40
0.4999999999999964
100
AcDbArc
 50
90.0
 51
180.0
  0
ARC
  5
29D
330
1F
100
AcDbEntity
  8
SLD-0
  6
SLD-DURCHGEHEND
 62
     7
100
AcDbCircle
 10
24.7255751466
 20
31.2418152866
 30
0.0
 40
0.4999999999999964
100
AcDbArc
 50
0.0
 51
90.0
  0
ARC
  5
29E
330
1F
100
AcDbEntity
  8
SLD-0
  6
SLD-DURCHGEHEND
 62
     7
100
AcDbCircle
 10
43.7255751466
 20
33.0918152866
 30
0.0
 40
0.5000000000000071
100
AcDbArc
 50
0.0
 51
90.0
  0
ARC
  5
29F
330
1F
100
AcDbEntity
  8
SLD-0
  6
SLD-DURCHGEHEND
 62
     7
100
AcDbCircle
 10
24.2255751466
 20
33.0918152866
 30
0.0
 40
0.5
100
AcDbArc
 50
90.0
 51
180.0
  0
ARC
  5
2A0
330
1F
100
AcDbEntity
  8
SLD-0
  6
SLD-DURCHGEHEND
 62
     7
100
AcDbCircle
 10
43.7255751466
 20
32.2418152866
 30
0.0
 40
0.5
100
AcDbArc
 50
270.0
 51
0.0
  0
ARC
  5
2A1
330
1F
100
AcDbEntity
  8
SLD-0
  6
SLD-DURCHGEHEND
 62
     7
100
AcDbCircle
 10
24.2255751466
 20
32.2418152866
 30
0.0
 40
0.5
100
AcDbArc
 50
180.0
 51
270.0
  0
SPLINE
  5
2A2
330
1F
100
AcDbEntity
  8
SLD-0
  6
SLD-DURCHGEHEND
 62
     7
100
AcDbSpline
210
0.0
220
0.0
230
1.0
 70
     8
 71
     3
 72
    12
 73
     8
 74
     0
 42
0.000000001
 43
0.00000001
 40
0.0
 40
0.0
 40
0.0
 40
0.0
 40
0.2558433784613796
 40
0.5111172738571889
 40
0.7357196288940084
 40
0.9245336945655805
 40
1.0
 40
1.0
 40
1.0
 40
1.0
 10
12.32841533635
 20
81.38914012740001
 30
0.0
 10
12.26521997171382
 20
81.43501592668908
 30
0.0
 10
12.13896990932207
 20
81.52666541009442
 30
0.0
 10
11.9637082674743
 20
81.65737848848391
 30
0.0
 10
11.81843994694428
 20
81.76770100099786
 30
0.0
 10
11.72867922792062
 20
81.83690878809092
 30
0.0
 10
11.69741511556309
 20
81.86116873892551
 30
0.0
 10
11.68848752460189
 20
81.86809626385612
 30
0.0
  0
SPLINE
  5
2A3
330
1F
100
AcDbEntity
  8
SLD-0
  6
SLD-DURCHGEHEND
 62
     7
100
AcDbSpline
210
0.0
220
0.0
230
1.0
 70
     8
 71
     3
 72
    12
 73
     8
 74
     0
 42
0.000000001
 43
0.00000001
 40
0.0
 40
0.0
 40
0.0
 40
0.0
 40
0.249297873478906
 40
0.3745153991773157
 40
0.4988612204384961
 40
0.7489656914517002
 40
1.0
 40
1.0
 40
1.0
 40
1.0
 10
72.12231729706411
 20
63.79527233227054
 30
0.0
 10
72.07398556348936
 20
63.79115339132259
 30
0.0
 10
72.0013777299764
 20
63.78496558557935
 30
0.0
 10
71.92010147780896
 20
63.73226293986845
 30
0.0
 10
71.8587983423951
 20
63.65491550179254
 30
0.0
 10
71.86289314387317
 20
63.52880979611498
 30
0.0
 10
71.86056357141696
 20
63.43447457521103
 30
0.0
 10
71.8593966239872
 20
63.38721944765518
 30
0.0
  0
SPLINE
  5
2A4
330
1F
100
AcDbEntity
  8
SLD-0
  6
SLD-DURCHGEHEND
 62
     7
100
AcDbSpline
210
0.0
220
0.0
230
1.0
 70
     8
 71
     3
 72
     9
 73
     5
 74
     0
 42
0.000000001
 43
0.00000001
 40
0.0
 40
0.0
 40
0.0
 40
0.0
 40
0.5597208339291461
 40
1.0
 40
1.0
 40
1.0
 40
1.0
 10
72.0578140919359
 20
64.10937489641279
 30
0.0
 10
72.13052336621314
 20
64.10419863923214
 30
0.0
 10
72.26042611392185
 20
64.09495071264644
 30
0.0
 10
72.38554107931125
 20
64.05920676372021
 30
0.0
 10
72.44062659193591
 20
64.0434694476949
 30
0.0
  0
SPLINE
  5
2A5
330
1F
100
AcDbEntity
  8
SLD-0
  6
SLD-DURCHGEHEND
 62
     7
100
AcDbSpline
210
0.0
220
0.0
230
1.0
 70
     8
 71
     3
 72
     9
 73
     5
 74
     0
 42
0.000000001
 43
0.00000001
 40
0.0
 40
0.0
 40
0.0
 40
0.0
 40
0.5602412893438001
 40
1.0
 40
1.0
 40
1.0
 40
1.0
 10
72.44062659193591
 20
63.7167466912449
 30
0.0
 10
72.38315816768201
 20
63.73984470769869
 30
0.0
 10
72.2805801796847
 20
63.7810734012868
 30
0.0
 10
72.1706569811312
 20
63.79093542252599
 30
0.0
 10
72.12231729706411
 20
63.79527233227054
 30
0.0
  0
SPLINE
  5
2A6
330
1F
100
AcDbEntity
  8
SLD-0
  6
SLD-DURCHGEHEND
 62
     7
100
AcDbSpline
210
0.0
220
0.0
230
1.0
 70
     8
 71
     3
 72
    12
 73
     8
 74
     0
 42
0.000000001
 43
0.00000001
 40
0.0
 40
0.0
 40
0.0
 40
0.0
 40
0.1874856564622944
 40
0.3747410546986592
 40
0.5607141900076881
 40
0.7799325141987891
 40
1.0
 40
1.0
 40
1.0
 40
1.0
 10
71.54319069450001
 20
63.4412058259
 30
0.0
 10
71.54441312755804
 20
63.50174062359805
 30
0.0
 10
71.54685649235786
 20
63.6227358739195
 30
0.0
 10
71.56766592627307
 20
63.80493282502025
 30
0.0
 10
71.66369553990936
 20
63.97787513630774
 30
0.0
 10
71.84300242543155
 20
64.09276476255086
 30
0.0
 10
71.9861179865703
 20
64.10383105455875
 30
0.0
 10
72.0578140919359
 20
64.10937489641279
 30
0.0
  0
SPLINE
  5
2A7
330
1F
100
AcDbEntity
  8
SLD-0
  6
SLD-DURCHGEHEND
 62
     7
100
AcDbSpline
210
0.0
220
0.0
230
1.0
 70
     8
 71
     3
 72
    12
 73
     8
 74
     0
 42
0.000000001
 43
0.00000001
 40
0.0
 40
0.0
 40
0.0
 40
0.0
 40
0.1843105939631533
 40
0.4339634041390643
 40
0.6304034928494537
 40
0.8321438751286685
 40
1.0
 40
1.0
 40
1.0
 40
1.0
 10
63.37401911687227
 20
53.4747595117864
 30
0.0
 10
63.32687317196016
 20
53.4996986055754
 30
0.0
 10
63.21586699317541
 20
53.55841825811465
 30
0.0
 10
63.11759557829641
 20
53.69550672325415
 30
0.0
 10
63.05354877701821
 20
53.84458589990165
 30
0.0
 10
63.02259089870292
 20
53.9820113020614
 30
0.0
 10
63.01912413561652
 20
54.07325021540455
 30
0.0
 10
63.01754966885001
 20
54.1146873235345
 30
0.0
  0
SPLINE
  5
2A8
330
1F
100
AcDbEntity
  8
SLD-0
  6
SLD-DURCHGEHEND
 62
     7
100
AcDbSpline
210
0.0
220
0.0
230
1.0
 70
     8
 71
     3
 72
    12
 73
     8
 74
     0
 42
0.000000001
 43
0.00000001
 40
0.0
 40
0.0
 40
0.0
 40
0.0
 40
0.251466394770522
 40
0.5110989792606255
 40
0.735709739195497
 40
0.9245308705230479
 40
0.9999999999999999
 40
0.9999999999999999
 40
0.9999999999999999
 40
0.9999999999999999
 10
80.5175496688742
 20
54.1146873235345
 30
0.0
 10
80.51408374680557
 20
54.05258040073765
 30
0.0
 10
80.50703934935
 20
53.9263496776406
 30
0.0
 10
80.44824644153245
 20
53.7509175655781
 30
0.0
 10
80.35416946168145
 20
53.60471352316515
 30
0.0
 10
80.25159784525594
 20
53.5149510897732
 30
0.0
 10
80.18118646813015
 20
53.4836870749082
 30
0.0
 10
80.16108022085194
 20
53.4747595117864
 30
0.0
  0
SPLINE
  5
2A9
330
1F
100
AcDbEntity
  8
SLD-0
  6
SLD-DURCHGEHEND
 62
     7
100
AcDbSpline
210
0.0
220
0.0
230
1.0
 70
     8
 71
     3
 72
    12
 73
     8
 74
     0
 42
0.000000001
 43
0.00000001
 40
0.0
 40
0.0
 40
0.0
 40
0.0
 40
0.1843105939631533
 40
0.4339634041390643
 40
0.6304034928494537
 40
0.8321438751286685
 40
1.0
 40
1.0
 40
1.0
 40
1.0
 10
138.8047009850981
 20
81.86809626385612
 30
0.0
 10
138.7797618913091
 20
81.84876259320522
 30
0.0
 10
138.7210422387698
 20
81.80324103446152
 30
0.0
 10
138.5839537736303
 20
81.69849815540712
 30
0.0
 10
138.4348745969829
 20
81.58671792646682
 30
0.0
 10
138.2974491948231
 20
81.48521455244362
 30
0.0
 10
138.20621028148
 20
81.41914589856236
 30
0.0
 10
138.16477317335
 20
81.38914012740001
 30
0.0
  0
SPLINE
  5
2AA
330
1F
100
AcDbEntity
  8
SLD-0
  6
SLD-DURCHGEHEND
 62
     7
100
AcDbSpline
210
0.0
220
0.0
230
1.0
 70
     8
 71
     3
 72
    11
 73
     7
 74
     0
 42
0.000000001
 43
0.00000001
 40
0.0
 40
0.0
 40
0.0
 40
0.0
 40
0.2125602031018944
 40
0.4591138195409331
 40
0.7646186594807641
 40
0.9999999999999999
 40
0.9999999999999999
 40
0.9999999999999999
 40
0.9999999999999999
 10
123.3319546284941
 20
33.60381053496229
 30
0.0
 10
123.3340048753587
 20
33.60548927497826
 30
0.0
 10
123.3384332521445
 20
33.60911522531841
 30
0.0
 10
123.3900982965587
 20
33.63188794497658
 30
0.0
 10
123.4710088587017
 20
33.64553208472984
 30
0.0
 10
123.530637078499
 20
33.63000756730541
 30
0.0
 10
123.5565859210018
 20
33.62325165108072
 30
0.0
  0
SPLINE
  5
2AB
330
1F
100
AcDbEntity
  8
SLD-0
  6
SLD-DURCHGEHEND
 62
     7
100
AcDbSpline
210
0.0
220
0.0
230
1.0
 70
     8
 71
     3
 72
    11
 73
     7
 74
     0
 42
0.000000001
 43
0.00000001
 40
0.0
 40
0.0
 40
0.0
 40
0.0
 40
0.1620413276651115
 40
0.4632917462365175
 40
0.7549456705009323
 40
1.0
 40
1.0
 40
1.0
 40
1.0
 10
131.2863232479672
 20
42.60888840177065
 30
0.0
 10
131.2667915452994
 20
42.61461747125312
 30
0.0
 10
131.2109485281731
 20
42.63099743211304
 30
0.0
 10
131.1402491567669
 20
42.66158339685167
 30
0.0
 10
131.0918166268833
 20
42.69374327831103
 30
0.0
 10
131.0892969433099
 20
42.69677330569154
 30
0.0
 10
131.0881464870531
 20
42.69815677859864
 30
0.0
  0
SPLINE
  5
2AC
330
1F
100
AcDbEntity
  8
SLD-0
  6
SLD-DURCHGEHEND
 62
     7
100
AcDbSpline
210
0.0
220
0.0
230
1.0
 70
     8
 71
     3
 72
    16
 73
    12
 74
     0
 42
0.000000001
 43
0.00000001
 40
0.0
 40
0.0
 40
0.0
 40
0.0
 40
0.066748156255931
 40
0.174079117214754
 40
0.28457984254647
 40
0.4012808000472504
 40
0.5243484603437835
 40
0.6521673598411616
 40
0.7824924423759155
 40
0.9128123851846461
 40
0.9999999999999999
 40
0.9999999999999999
 40
0.9999999999999999
 40
0.9999999999999999
 10
115.7953298323203
 20
47.14611833255293
 30
0.0
 10
115.7931748233728
 20
47.14409332000513
 30
0.0
 10
115.7875545624363
 20
47.13881208953461
 30
0.0
 10
115.7513591310893
 20
47.11398950939923
 30
0.0
 10
115.6785287736532
 20
47.08037096847698
 30
0.0
 10
115.575227579381
 20
47.0479568797124
 30
0.0
 10
115.4470755651193
 20
47.02352324284533
 30
0.0
 10
115.3021888405844
 20
47.01163658911965
 30
0.0
 10
115.1522380082969
 20
47.01515245619686
 30
0.0
 10
115.0228069097569
 20
47.03151607108052
 30
0.0
 10
114.9526930458502
 20
47.04874946890016
 30
0.0
 10
114.9245879968749
 20
47.05565745346617
 30
0.0
  0
SPLINE
  5
2AD
330
1F
100
AcDbEntity
  8
SLD-0
  6
SLD-DURCHGEHEND
 62
     7
100
AcDbSpline
210
0.0
220
0.0
230
1.0
 70
     8
 71
     3
 72
    16
 73
    12
 74
     0
 42
0.000000001
 43
0.00000001
 40
0.0
 40
0.0
 40
0.0
 40
0.0
 40
0.0652313790414399
 40
0.1855670803792936
 40
0.3103340808301471
 40
0.4384152903576149
 40
0.5673571939622528
 40
0.694143299550304
 40
0.8164197334322474
 40
0.9189648322407297
 40
0.9999999999999999
 40
0.9999999999999999
 40
0.9999999999999999
 40
0.9999999999999999
 10
120.3815271092841
 20
52.2688863658592
 30
0.0
 10
120.3811842008369
 20
52.2479728085164
 30
0.0
 10
120.3802087114281
 20
52.1884789294436
 30
0.0
 10
120.3686117566201
 20
52.07273320458275
 30
0.0
 10
120.341656802798
 20
51.92483668037216
 30
0.0
 10
120.3007590677284
 20
51.7714378978355
 30
0.0
 10
120.2486314417641
 20
51.6245473677617
 30
0.0
 10
120.1897606006813
 20
51.49542465627895
 30
0.0
 10
120.1337875971874
 20
51.39874445736891
 30
0.0
 10
120.0888446722233
 20
51.3381027424436
 30
0.0
 10
120.0727132848165
 20
51.32139902425085
 30
0.0
 10
120.0655926410288
 20
51.314025744806
 30
0.0
  0
SPLINE
  5
2AE
330
1F
100
AcDbEntity
  8
SLD-0
  6
SLD-DURCHGEHEND
 62
     7
100
AcDbSpline
210
0.0
220
0.0
230
1.0
 70
     8
 71
     3
 72
    12
 73
     8
 74
     0
 42
0.000000001
 43
0.00000001
 40
0.0
 40
0.0
 40
0.0
 40
0.0
 40
0.1874856564622944
 40
0.3747410546986592
 40
0.5607141900076881
 40
0.7799325141987891
 40
1.0
 40
1.0
 40
1.0
 40
1.0
 10
114.4530586104465
 20
36.70894257684645
 30
0.0
 10
114.482391063351
 20
36.7362228912073
 30
0.0
 10
114.5410199448654
 20
36.79075001594313
 30
0.0
 10
114.6444546622776
 20
36.8687404899809
 30
0.0
 10
114.810096372024
 20
36.92443502643206
 30
0.0
 10
115.0222970897249
 20
36.93366902601264
 30
0.0
 10
115.1540356729427
 20
36.90430972179787
 30
0.0
 10
115.220032293212
 20
36.88960169318313
 30
0.0
  0
SPLINE
  5
2AF
330
1F
100
AcDbEntity
  8
SLD-0
  6
SLD-DURCHGEHEND
 62
     7
100
AcDbSpline
210
0.0
220
0.0
230
1.0
 70
     8
 71
     3
 72
    12
 73
     8
 74
     0
 42
0.000000001
 43
0.00000001
 40
0.0
 40
0.0
 40
0.0
 40
0.0
 40
0.249297873478906
 40
0.3745153991773157
 40
0.4988612204384961
 40
0.7489656914517002
 40
1.0
 40
1.0
 40
1.0
 40
1.0
 10
115.1304898784224
 20
36.73102077557974
 30
0.0
 10
115.0858221266491
 20
36.74076186126178
 30
0.0
 10
115.0187186225065
 20
36.75539570687676
 30
0.0
 10
114.92224035049
 20
36.75092521614182
 30
0.0
 10
114.8319250539187
 20
36.7304279444357
 30
0.0
 10
114.7766936191931
 20
36.67200140906933
 30
0.0
 10
114.7306074904875
 20
36.62959081605638
 30
0.0
 10
114.7075216709
 20
36.6083461742
 30
0.0
  0
SPLINE
  5
2B0
330
1F
100
AcDbEntity
  8
SLD-0
  6
SLD-DURCHGEHEND
 62
     7
100
AcDbSpline
210
0.0
220
0.0
230
1.0
 70
     8
 71
     3
 72
     9
 73
     5
 74
     0
 42
0.000000001
 43
0.00000001
 40
0.0
 40
0.0
 40
0.0
 40
0.0
 40
0.5602412893438001
 40
1.0
 40
1.0
 40
1.0
 40
1.0
 10
115.3753608325259
 20
36.61874094037941
 30
0.0
 10
115.335314454464
 20
36.64307574412528
 30
0.0
 10
115.2638338641831
 20
36.6865120352533
 30
0.0
 10
115.1712183552275
 20
36.71742606271985
 30
0.0
 10
115.1304898784224
 20
36.73102077557974
 30
0.0
  0
SPLINE
  5
2B1
330
1F
100
AcDbEntity
  8
SLD-0
  6
SLD-DURCHGEHEND
 62
     7
100
AcDbSpline
210
0.0
220
0.0
230
1.0
 70
     8
 71
     3
 72
     9
 73
     5
 74
     0
 42
0.000000001
 43
0.00000001
 40
0.0
 40
0.0
 40
0.0
 40
0.0
 40
0.5597208339291461
 40
1.0
 40
1.0
 40
1.0
 40
1.0
 10
115.220032293212
 20
36.88960169318313
 30
0.0
 10
115.2819219576386
 20
36.86976703165233
 30
0.0
 10
115.3924943370732
 20
36.83433032762337
 30
0.0
 10
115.4864667436106
 20
36.78797526635454
 30
0.0
 10
115.5278408363946
 20
36.76756609863593
 30
0.0
  0
SPLINE
  5
2B2
330
1F
100
AcDbEntity
  8
SLD-0
  6
SLD-DURCHGEHEND
 62
     7
100
AcDbSpline
210
0.0
220
0.0
230
1.0
 70
     8
 71
     3
 72
    12
 73
     8
 74
     0
 42
0.000000001
 43
0.00000001
 40
0.0
 40
0.0
 40
0.0
 40
0.0
 40
0.251466394770522
 40
0.5110989792606255
 40
0.735709739195497
 40
0.9245308705230479
 40
0.9999999999999999
 40
0.9999999999999999
 40
0.9999999999999999
 40
0.9999999999999999
 10
118.0375011379978
 20
29.87491592248712
 30
0.0
 10
118.0054507992221
 20
29.88608822563603
 30
0.0
 10
117.9403093100454
 20
29.90879564441701
 30
0.0
 10
117.8064384391756
 20
29.95519717629053
 30
0.0
 10
117.6550023009257
 20
30.00637644711833
 30
0.0
 10
117.522394390826
 20
30.04946929317559
 30
0.0
 10
117.4455305213468
 20
30.07294740831771
 30
0.0
 10
117.4235817393517
 20
30.07965167697347
 30
0.0
  0
SPLINE
  5
2B3
330
1F
100
AcDbEntity
  8
SLD-0
  6
SLD-DURCHGEHEND
 62
     7
100
AcDbSpline
210
0.0
220
0.0
230
1.0
 70
     8
 71
     3
 72
    12
 73
     8
 74
     0
 42
0.000000001
 43
0.00000001
 40
0.0
 40
0.0
 40
0.0
 40
0.0
 40
0.1843105939631533
 40
0.4339634041390643
 40
0.6304034928494537
 40
0.8321438751286685
 40
1.0
 40
1.0
 40
1.0
 40
1.0
 10
102.5768006893073
 20
34.11468863833939
 30
0.0
 10
102.5467429213388
 20
34.12080870712682
 30
0.0
 10
102.4759712362831
 20
34.13521854558182
 30
0.0
 10
102.4530367706773
 20
34.1315025018343
 30
0.0
 10
102.4659671833183
 20
34.11898971910241
 30
0.0
 10
102.5027232762374
 20
34.10202407254501
 30
0.0
 10
102.5422379882884
 20
34.08778562124638
 30
0.0
 10
102.560184008643
 20
34.08131907945575
 30
0.0
  0
SPLINE
  5
2B4
330
1F
100
AcDbEntity
  8
SLD-0
  6
SLD-DURCHGEHEND
 62
     7
100
AcDbSpline
210
0.0
220
0.0
230
1.0
 70
     8
 71
     3
 72
    12
 73
     8
 74
     0
 42
0.000000001
 43
0.00000001
 40
0.0
 40
0.0
 40
0.0
 40
0.0
 40
0.1843105939631533
 40
0.4339634041390643
 40
0.6304034928494537
 40
0.8321438751286685
 40
1.0
 40
1.0
 40
1.0
 40
1.0
 10
25.58204459460227
 20
54.71790518104994
 30
0.0
 10
25.53489864969019
 20
54.69857151039899
 30
0.0
 10
25.42389247090543
 20
54.6530499516553
 30
0.0
 10
25.3256210560264
 20
54.54830707260093
 30
0.0
 10
25.26157425474824
 20
54.43652684366064
 30
0.0
 10
25.23061637643294
 20
54.33502346963738
 30
0.0
 10
25.22714961334653
 20
54.2689548157562
 30
0.0
 10
25.22557514658001
 20
54.2389490445938
 30
0.0
  0
SPLINE
  5
2B5
330
1F
100
AcDbEntity
  8
SLD-0
  6
SLD-DURCHGEHEND
 62
     7
100
AcDbSpline
210
0.0
220
0.0
230
1.0
 70
     8
 71
     3
 72
    12
 73
     8
 74
     0
 42
0.000000001
 43
0.00000001
 40
0.0
 40
0.0
 40
0.0
 40
0.0
 40
0.251466394770522
 40
0.5110989792606255
 40
0.735709739195497
 40
0.9245308705230479
 40
0.9999999999999999
 40
0.9999999999999999
 40
0.9999999999999999
 40
0.9999999999999999
 10
42.72557514657111
 20
54.2389490445938
 30
0.0
 10
42.72210922450248
 20
54.28401548188929
 30
0.0
 10
42.71506482704694
 20
54.37561185651289
 30
0.0
 10
42.65627191922938
 20
54.50648552495559
 30
0.0
 10
42.56219493937838
 20
54.61750659571869
 30
0.0
 10
42.45962332295285
 20
54.68671796733783
 30
0.0
 10
42.38921194582705
 20
54.7109777143279
 30
0.0
 10
42.36910569854885
 20
54.71790518104994
 30
0.0
  0
ELLIPSE
  5
2B6
330
1F
100
AcDbEntity
  8
SLD-0
  6
SLD-DURCHGEHEND
 62
     7
100
AcDbEllipse
 10
131.5973997129
 20
41.2776153294
 30
0.0
 11
0.4980909166139611
 21
-0.2098640389770381
 31
0.0
210
0.0
220
0.0
230
1.0
 40
0.2079981507
 41
6.195771360888099
 42
6.856149851223983
  0
ELLIPSE
  5
2B7
330
1F
100
AcDbEntity
  8
SLD-0
  6
SLD-DURCHGEHEND
 62
     7
100
AcDbEllipse
 10
114.3512463402
 20
46.6933424813
 30
0.0
 11
-0.1429152564355292
 21
0.550619278062257
 31
0.0
210
0.0
220
0.0
230
1.0
 40
0.2766155982
 41
5.529598308106404
 42
6.440016144889339
  0
MTEXT
  5
2B9
330
1F
100
AcDbEntity
  8
SLD-0
 62
     7
100
AcDbMText
 10
140.1384686399
 20
9.6601066131
 30
0.0
 40
0.75
 41
0.0
 71
     1
 72
     1
  1
Blattformat
  7
SLDTEXTSTYLE0
  0
MTEXT
  5
2BA
330
1F
100
AcDbEntity
  8
SLD-0
 62
     7
100
AcDbMText
 10
81.1821204463
 20
12.881349374
 30
0.0
 40
0.75
 41
0.0
 71
     1
 72
     1
  1
Ch. Höfig
  7
SLDTEXTSTYLE0
  0
MTEXT
  5
2BB
330
1F
100
AcDbEntity
  8
SLD-0
 62
     7
100
AcDbMText
 10
83.3891405507
 20
16.0788775599
 30
0.0
 40
0.75
 41
0.0
 71
     2
 72
     1
  1
Name
  7
SLDTEXTSTYLE0
  0
MTEXT
  5
2BC
330
1F
100
AcDbEntity
  8
SLD-0
 62
     7
100
AcDbMText
 10
80.2229311544
 20
10.4369122839
 30
0.0
 40
0.75
 41
0.0
 71
     1
 72
     1
  1
Werkstoff:
  7
SLDTEXTSTYLE0
  0
MTEXT
  5
2BD
330
1F
100
AcDbEntity
  8
SLD-0
 62
     7
100
AcDbMText
 10
102.4324929517
 20
16.0669348708
 30
0.0
 40
0.75
 41
0.0
 71
     1
 72
     1
  1
Artikelnummer
  7
SLDTEXTSTYLE0
  0
MTEXT
  5
2BE
330
1F
100
AcDbEntity
  8
SLD-0
 62
     7
100
AcDbMText
 10
102.4369830588
 20
9.8782030528
 30
0.0
 40
0.75
 41
0.0
 71
     1
 72
     1
  1
Hersteller
  7
SLDTEXTSTYLE0
  0
MTEXT
  5
2BF
330
1F
100
AcDbEntity
  8
SLD-0
 62
     7
100
AcDbMText
 10
102.4369830588
 20
3.8939277765
 30
0.0
 40
0.75
 41
0.0
 71
     1
 72
     1
  1
Massstab: 2:1
  7
SLDTEXTSTYLE0
  0
MTEXT
  5
2C1
330
1F
100
AcDbEntity
  8
SLD-0
 62
     7
100
AcDbMText
 10
124.6391472139
 20
3.8939277765
 30
0.0
 40
0.75
 41
0.0
 71
     1
 72
     1
  1
Blatt 1 von 1
  7
SLDTEXTSTYLE1
  0
MTEXT
  5
2C2
330
1F
100
AcDbEntity
  8
SLD-0
 62
     7
100
AcDbMText
 10
141.509100626
 20
6.9983664993
 30
0.0
 40
1.4552083334
 41
0.0
 71
     1
 72
     1
  1
A4
  7
SLDTEXTSTYLE0
  0
MTEXT
  5
2C3
330
1F
100
AcDbEntity
  8
SLD-0
 62
     7
100
AcDbMText
 10
122.4061828
 20
8.9458953188
 30
0.0
 40
2.6458333334
 41
0.0
 71
     2
 72
     1
  1
Feldmann GmbH
  7
SLDTEXTSTYLE0
  0
MTEXT
  5
2C4
330
1F
100
AcDbEntity
  8
SLD-0
 62
     7
100
AcDbMText
 10
98.1284764873
 20
16.0788775599
 30
0.0
 40
0.75
 41
0.0
 71
     2
 72
     1
  1
Datum
  7
SLDTEXTSTYLE0
  0
MTEXT
  5
2C5
330
1F
100
AcDbEntity
  8
SLD-0
 62
     7
100
AcDbMText
 10
90.0133754751
 20
12.881349374
 30
0.0
 40
0.75
 41
0.0
 71
     1
 72
     1
  1
CH
  7
SLDTEXTSTYLE0
  0
MTEXT
  5
2C6
330
1F
100
AcDbEntity
  8
SLD-0
 62
     7
100
AcDbMText
 10
95.6986496532
 20
12.8823676807
 30
0.0
 40
0.75
 41
0.0
 71
     1
 72
     1
  1
06.05.2014
  7
SLDTEXTSTYLE0
  0
MTEXT
  5
2C7
330
1F
100
AcDbEntity
  8
SLD-0
 62
     7
100
AcDbMText
 10
90.8040473487
 20
3.9058704657
 30
0.0
 40
0.75
 41
0.0
 71
     2
 72
     1
  1
Gewicht 0.019 kg
  7
SLDTEXTSTYLE0
  0
MTEXT
  5
2C8
330
1F
100
AcDbEntity
  8
SLD-0
 62
     7
100
AcDbMText
 10
90.7849281871
 20
7.7101257197
 30
0.0
 40
1.190625
 41
0.0
 71
     2
 72
     1
  1
Zink
  7
SLDTEXTSTYLE0
  0
MTEXT
  5
2C9
330
1F
100
AcDbEntity
  8
SLD-0
 62
     7
100
AcDbMText
 10
115.3352001674
 20
14.5632985055
 30
0.0
 40
2.1166666667
 41
0.0
 71
     2
 72
     1
  1
38-Boden-ZN0
  7
SLDTEXTSTYLE0
  0
MTEXT
  5
2CA
330
1F
100
AcDbEntity
  8
SLD-0
 62
     7
100
AcDbMText
 10
90.8816357383
 20
15.9791717859
 30
0.0
 40
0.75
 41
0.0
 71
     2
 72
     1
  1
Signatur
  7
SLDTEXTSTYLE0
  0
ENDSEC
  0
SECTION
  2
OBJECTS
  0
DICTIONARY
  5
C
330
0
100
AcDbDictionary
  3
ACAD_GROUP
350
D
  3
ACAD_MLINESTYLE
350
17
  3
ACAD_SCALELIST
350
47
1001
ACAD
1000
TREAT_AS_HARD
1070
     0
  0
DICTIONARY
  5
D
102
{ACAD_REACTORS
330
C
102
}
330
C
100
AcDbDictionary
1001
ACAD
1000
TREAT_AS_HARD
1070
     0
  0
DICTIONARY
  5
17
102
{ACAD_REACTORS
330
C
102
}
330
C
100
AcDbDictionary
  3
STANDARD
350
18
1001
ACAD
1000
TREAT_AS_HARD
1070
     0
  0
DICTIONARY
  5
47
102
{ACAD_REACTORS
330
C
102
}
330
C
100
AcDbDictionary
1001
ACAD
1000
TREAT_AS_HARD
1070
     0
  0
MLINESTYLE
  5
18
102
{ACAD_REACTORS
330
17
102
}
330
17
100
AcDbMlineStyle
  2
Standard
 70
     0
  3

 62
   256
 51
90.0
 52
90.0
 71
     2
 49
0.5
 62
   256
  6
BYLAYER
 49
-0.5
 62
   256
  6
BYLAYER
  0
ENDSEC
  0
EOF
