ISO-10303-21;
HEADER;
FILE_DESCRIPTION (( 'STEP AP203' ),
    '1' );
FILE_NAME ('51040-240.step',
    '2023-09-08T07:10:40',
    ( '' ),
    ( '' ),
    'SwSTEP 2.0',
    'SolidWorks 2018',
    '' );
FILE_SCHEMA (( 'CONFIG_CONTROL_DESIGN' ));
ENDSEC;

DATA;
#1 = APPROVAL_ROLE ( '' ) ;
#2 = VERTEX_POINT ( 'NONE', #80 ) ;
#3 = SHAPE_DEFINITION_REPRESENTATION ( #104, #27 ) ;
#4 = PRODUCT_RELATED_PRODUCT_CATEGORY ( 'detail', '', ( #41 ) ) ;
#5 = CC_DESIGN_PERSON_AND_ORGANIZATION_ASSIGNMENT ( #42, #94, ( #101 ) ) ;
#6 = CARTESIAN_POINT ( 'NONE',  ( 0.000000000000000000, 26.00000000000000355, 0.000000000000000000 ) ) ;
#7 = DIRECTION ( 'NONE',  ( 0.000000000000000000, 0.000000000000000000, 1.000000000000000000 ) ) ;
#8 = COORDINATED_UNIVERSAL_TIME_OFFSET ( 1, 0, .AHEAD. ) ;
#9 = APPROVAL_PERSON_ORGANIZATION ( #68, #107, #81 ) ;
#10 = APPLICATION_CONTEXT ( 'configuration controlled 3d designs of mechanical parts and assemblies' ) ;
#11 = APPROVAL_STATUS ( 'not_yet_approved' ) ;
#12 = ADVANCED_FACE ( 'NONE', ( #113 ), #103, .T. ) ;
#13 = CIRCLE ( 'NONE', #121, 3.682968874471155285 ) ;
#14 = PERSON_AND_ORGANIZATION_ROLE ( 'design_owner' ) ;
#15 = ORIENTED_EDGE ( 'NONE', *, *, #99, .F. ) ;
#16 = PERSON_AND_ORGANIZATION ( #75, #96 ) ;
#17 = FACE_OUTER_BOUND ( 'NONE', #140, .T. ) ;
#18 = COORDINATED_UNIVERSAL_TIME_OFFSET ( 1, 0, .AHEAD. ) ;
#19 = DIRECTION ( 'NONE',  ( 0.000000000000000000, 0.000000000000000000, 1.000000000000000000 ) ) ;
#20 = CARTESIAN_POINT ( 'NONE',  ( -6.933347799794072061E-32, 0.3420311255288438490, 0.000000000000000000 ) ) ;
#21 = COORDINATED_UNIVERSAL_TIME_OFFSET ( 1, 0, .AHEAD. ) ;
#22 = CARTESIAN_POINT ( 'NONE',  ( 0.000000000000000000, 0.6250000000000144329, 0.000000000000000000 ) ) ;
#23 = CARTESIAN_POINT ( 'NONE',  ( 0.000000000000000000, 26.00000000000000355, 0.000000000000000000 ) ) ;
#24 = SECURITY_CLASSIFICATION_LEVEL ( 'unclassified' ) ;
#25 = APPROVAL_STATUS ( 'not_yet_approved' ) ;
#26 = FACE_OUTER_BOUND ( 'NONE', #55, .T. ) ;
#27 = ADVANCED_BREP_SHAPE_REPRESENTATION ( '51040-240', ( #39, #69 ), #132 ) ;
#28 = EDGE_LOOP ( 'NONE', ( #130 ) ) ;
#29 = DIRECTION ( 'NONE',  ( 0.000000000000000000, 0.000000000000000000, -1.000000000000000000 ) ) ;
#30 = CALENDAR_DATE ( 2023, 8, 9 ) ;
#31 = CARTESIAN_POINT ( 'NONE',  ( 0.000000000000000000, -1.734723475976807094E-15, 0.000000000000000000 ) ) ;
#32 = CARTESIAN_POINT ( 'NONE',  ( -6.933347799794072061E-32, 20.00000000000000000, 0.000000000000000000 ) ) ;
#33 = CIRCLE ( 'NONE', #84, 3.399999999999987921 ) ;
#34 = DESIGN_CONTEXT ( 'detailed design', #111, 'design' ) ;
#35 = DATE_AND_TIME ( #98, #131 ) ;
#36 = CALENDAR_DATE ( 2023, 8, 9 ) ;
#37 = FACE_OUTER_BOUND ( 'NONE', #28, .T. ) ;
#38 = DATE_AND_TIME ( #30, #85 ) ;
#39 = MANIFOLD_SOLID_BREP ( 'M8 Gewindebohrung2', #134 ) ;
#40 = APPROVAL_PERSON_ORGANIZATION ( #150, #153, #71 ) ;
#41 = PRODUCT ( '51040-240', '51040-240', '', ( #128 ) ) ;
#42 = PERSON_AND_ORGANIZATION ( #75, #96 ) ;
#43 = DIRECTION ( 'NONE',  ( -0.000000000000000000, 0.000000000000000000, -1.000000000000000000 ) ) ;
#44 = CONICAL_SURFACE ( 'NONE', #136, 3.399999999999994138, 1.029744258676652091 ) ;
#45 = PERSON_AND_ORGANIZATION ( #75, #96 ) ;
#46 = EDGE_LOOP ( 'NONE', ( #15 ) ) ;
#47 =( LENGTH_UNIT ( ) NAMED_UNIT ( * ) SI_UNIT ( .MILLI., .METRE. ) );
#48 = APPLICATION_PROTOCOL_DEFINITION ( 'international standard', 'config_control_design', 1994, #111 ) ;
#49 = CARTESIAN_POINT ( 'NONE',  ( 0.000000000000000000, 26.00000000000000355, -3.399999999999994138 ) ) ;
#50 = CIRCLE ( 'NONE', #106, 3.399999999999994138 ) ;
#51 = DATE_AND_TIME ( #36, #126 ) ;
#52 = APPROVAL_PERSON_ORGANIZATION ( #77, #118, #1 ) ;
#53 = CC_DESIGN_APPROVAL ( #118, ( #110 ) ) ;
#54 = CYLINDRICAL_SURFACE ( 'NONE', #93, 3.399999999999991029 ) ;
#55 = EDGE_LOOP ( 'NONE', ( #144 ) ) ;
#56 = APPROVAL_DATE_TIME ( #129, #118 ) ;
#57 = DIRECTION ( 'NONE',  ( 0.000000000000000000, 0.000000000000000000, -1.000000000000000000 ) ) ;
#58 = ORIENTED_EDGE ( 'NONE', *, *, #67, .F. ) ;
#59 = SECURITY_CLASSIFICATION ( '', '', #24 ) ;
#60 = COORDINATED_UNIVERSAL_TIME_OFFSET ( 1, 0, .AHEAD. ) ;
#61 = DIRECTION ( 'NONE',  ( -0.000000000000000000, -1.000000000000000000, -0.000000000000000000 ) ) ;
#62 = DIRECTION ( 'NONE',  ( 0.000000000000000000, 0.000000000000000000, -1.000000000000000000 ) ) ;
#63 = CONICAL_SURFACE ( 'NONE', #147, 4.025000000000000355, 0.7853981633974456145 ) ;
#64 = APPROVAL_DATE_TIME ( #35, #153 ) ;
#65 = DIRECTION ( 'NONE',  ( -1.000000000000000000, -1.734723475976807094E-16, 0.000000000000000000 ) ) ;
#66 = CALENDAR_DATE ( 2023, 8, 9 ) ;
#67 = EDGE_CURVE ( 'NONE', #2, #2, #33, .T. ) ;
#68 = PERSON_AND_ORGANIZATION ( #75, #96 ) ;
#69 = AXIS2_PLACEMENT_3D ( 'NONE', #135, #19, #90 ) ;
#70 = LOCAL_TIME ( 9, 10, 40.00000000000000000, #60 ) ;
#71 = APPROVAL_ROLE ( '' ) ;
#72 = ADVANCED_FACE ( 'NONE', ( #37, #17 ), #54, .F. ) ;
#73 = EDGE_LOOP ( 'NONE', ( #149 ) ) ;
#74 = CC_DESIGN_PERSON_AND_ORGANIZATION_ASSIGNMENT ( #100, #14, ( #41 ) ) ;
#75 = PERSON ( 'UNSPECIFIED', 'UNSPECIFIED', 'UNSPECIFIED', ('UNSPECIFIED'), ('UNSPECIFIED'), ('UNSPECIFIED') ) ;
#76 = EDGE_CURVE ( 'NONE', #108, #108, #50, .T. ) ;
#77 = PERSON_AND_ORGANIZATION ( #75, #96 ) ;
#78 = ADVANCED_FACE ( 'NONE', ( #138 ), #44, .F. ) ;
#79 = CC_DESIGN_APPROVAL ( #153, ( #59 ) ) ;
#80 = CARTESIAN_POINT ( 'NONE',  ( 0.000000000000000000, 0.6250000000000144329, -3.399999999999987921 ) ) ;
#81 = APPROVAL_ROLE ( '' ) ;
#82 = PERSON_AND_ORGANIZATION_ROLE ( 'creator' ) ;
#83 = EDGE_LOOP ( 'NONE', ( #58 ) ) ;
#84 = AXIS2_PLACEMENT_3D ( 'NONE', #22, #91, #57 ) ;
#85 = LOCAL_TIME ( 9, 10, 40.00000000000000000, #115 ) ;
#86 = DIRECTION ( 'NONE',  ( -0.000000000000000000, -1.000000000000000000, -0.000000000000000000 ) ) ;
#87 = DIRECTION ( 'NONE',  ( -0.000000000000000000, -1.000000000000000000, -0.000000000000000000 ) ) ;
#88 = APPROVAL_DATE_TIME ( #51, #107 ) ;
#89 = CC_DESIGN_PERSON_AND_ORGANIZATION_ASSIGNMENT ( #45, #82, ( #110 ) ) ;
#90 = DIRECTION ( 'NONE',  ( 1.000000000000000000, 0.000000000000000000, 0.000000000000000000 ) ) ;
#91 = DIRECTION ( 'NONE',  ( -0.000000000000000000, -1.000000000000000000, -0.000000000000000000 ) ) ;
#92 = PERSON_AND_ORGANIZATION_ROLE ( 'classification_officer' ) ;
#93 = AXIS2_PLACEMENT_3D ( 'NONE', #151, #124, #29 ) ;
#94 = PERSON_AND_ORGANIZATION_ROLE ( 'creator' ) ;
#95 = DATE_AND_TIME ( #66, #123 ) ;
#96 = ORGANIZATION ( 'UNSPECIFIED', 'UNSPECIFIED', '' ) ;
#97 = CC_DESIGN_DATE_AND_TIME_ASSIGNMENT ( #95, #114, ( #101 ) ) ;
#98 = CALENDAR_DATE ( 2023, 8, 9 ) ;
#99 = EDGE_CURVE ( 'NONE', #146, #146, #13, .T. ) ;
#100 = PERSON_AND_ORGANIZATION ( #75, #96 ) ;
#101 = PRODUCT_DEFINITION ( 'UNKNOWN', '', #110, #34 ) ;
#102 = FACE_BOUND ( 'NONE', #83, .T. ) ;
#103 = SPHERICAL_SURFACE ( 'NONE', #117, 20.00000000000000000 ) ;
#104 = PRODUCT_DEFINITION_SHAPE ( 'NONE', 'NONE',  #101 ) ;
#105 = APPROVAL_STATUS ( 'not_yet_approved' ) ;
#106 = AXIS2_PLACEMENT_3D ( 'NONE', #6, #86, #125 ) ;
#107 = APPROVAL ( #105, 'UNSPECIFIED' ) ;
#108 = VERTEX_POINT ( 'NONE', #49 ) ;
#109 = CC_DESIGN_PERSON_AND_ORGANIZATION_ASSIGNMENT ( #145, #155, ( #110 ) ) ;
#110 = PRODUCT_DEFINITION_FORMATION_WITH_SPECIFIED_SOURCE ( 'ANY', '', #41, .NOT_KNOWN. ) ;
#111 = APPLICATION_CONTEXT ( 'configuration controlled 3d designs of mechanical parts and assemblies' ) ;
#112 = ADVANCED_FACE ( 'NONE', ( #26, #102 ), #63, .F. ) ;
#113 = FACE_OUTER_BOUND ( 'NONE', #46, .T. ) ;
#114 = DATE_TIME_ROLE ( 'creation_date' ) ;
#115 = COORDINATED_UNIVERSAL_TIME_OFFSET ( 1, 0, .AHEAD. ) ;
#116 = CALENDAR_DATE ( 2023, 8, 9 ) ;
#117 = AXIS2_PLACEMENT_3D ( 'NONE', #32, #43, #65 ) ;
#118 = APPROVAL ( #11, 'UNSPECIFIED' ) ;
#119 = ORIENTED_EDGE ( 'NONE', *, *, #67, .T. ) ;
#120 = CC_DESIGN_PERSON_AND_ORGANIZATION_ASSIGNMENT ( #16, #92, ( #59 ) ) ;
#121 = AXIS2_PLACEMENT_3D ( 'NONE', #20, #61, #7 ) ;
#122 = DIRECTION ( 'NONE',  ( -0.000000000000000000, -1.000000000000000000, -0.000000000000000000 ) ) ;
#123 = LOCAL_TIME ( 9, 10, 40.00000000000000000, #18 ) ;
#124 = DIRECTION ( 'NONE',  ( -0.000000000000000000, -1.000000000000000000, -0.000000000000000000 ) ) ;
#125 = DIRECTION ( 'NONE',  ( 0.000000000000000000, 0.000000000000000000, -1.000000000000000000 ) ) ;
#126 = LOCAL_TIME ( 9, 10, 40.00000000000000000, #21 ) ;
#127 = APPLICATION_PROTOCOL_DEFINITION ( 'international standard', 'config_control_design', 1994, #10 ) ;
#128 = MECHANICAL_CONTEXT ( 'NONE', #10, 'mechanical' ) ;
#129 = DATE_AND_TIME ( #116, #70 ) ;
#130 = ORIENTED_EDGE ( 'NONE', *, *, #76, .F. ) ;
#131 = LOCAL_TIME ( 9, 10, 40.00000000000000000, #8 ) ;
#132 =( GEOMETRIC_REPRESENTATION_CONTEXT ( 3 ) GLOBAL_UNCERTAINTY_ASSIGNED_CONTEXT ( ( #143 ) ) GLOBAL_UNIT_ASSIGNED_CONTEXT ( ( #47, #142, #152 ) ) REPRESENTATION_CONTEXT ( 'NONE', 'WORKASPACE' ) );
#133 = CC_DESIGN_APPROVAL ( #107, ( #101 ) ) ;
#134 = CLOSED_SHELL ( 'NONE', ( #12, #78, #72, #112 ) ) ;
#135 = CARTESIAN_POINT ( 'NONE',  ( 0.000000000000000000, 0.000000000000000000, 0.000000000000000000 ) ) ;
#136 = AXIS2_PLACEMENT_3D ( 'NONE', #23, #87, #137 ) ;
#137 = DIRECTION ( 'NONE',  ( 0.000000000000000000, 0.000000000000000000, -1.000000000000000000 ) ) ;
#138 = FACE_OUTER_BOUND ( 'NONE', #73, .T. ) ;
#139 = CC_DESIGN_DATE_AND_TIME_ASSIGNMENT ( #38, #154, ( #59 ) ) ;
#140 = EDGE_LOOP ( 'NONE', ( #119 ) ) ;
#141 = CARTESIAN_POINT ( 'NONE',  ( -6.933347799794072061E-32, 0.3420311255288438490, 3.682968874471155285 ) ) ;
#142 =( NAMED_UNIT ( * ) PLANE_ANGLE_UNIT ( ) SI_UNIT ( $, .RADIAN. ) );
#143 = UNCERTAINTY_MEASURE_WITH_UNIT (LENGTH_MEASURE( 1.000000000000000082E-05 ), #47, 'distance_accuracy_value', 'NONE');
#144 = ORIENTED_EDGE ( 'NONE', *, *, #99, .T. ) ;
#145 = PERSON_AND_ORGANIZATION ( #75, #96 ) ;
#146 = VERTEX_POINT ( 'NONE', #141 ) ;
#147 = AXIS2_PLACEMENT_3D ( 'NONE', #31, #122, #62 ) ;
#148 = CC_DESIGN_SECURITY_CLASSIFICATION ( #59, ( #110 ) ) ;
#149 = ORIENTED_EDGE ( 'NONE', *, *, #76, .T. ) ;
#150 = PERSON_AND_ORGANIZATION ( #75, #96 ) ;
#151 = CARTESIAN_POINT ( 'NONE',  ( 0.000000000000000000, 0.000000000000000000, 0.000000000000000000 ) ) ;
#152 =( NAMED_UNIT ( * ) SI_UNIT ( $, .STERADIAN. ) SOLID_ANGLE_UNIT ( ) );
#153 = APPROVAL ( #25, 'UNSPECIFIED' ) ;
#154 = DATE_TIME_ROLE ( 'classification_date' ) ;
#155 = PERSON_AND_ORGANIZATION_ROLE ( 'design_supplier' ) ;
ENDSEC;
END-ISO-10303-21;
