  0
SECTION
  2
HEADER
  9
$ACADVER
  1
AC1015
  9
$ACADMAINTVER
 70
     6
  9
$DWGCODEPAGE
  3
ANSI_1252
  9
$INSBASE
 10
0.0
 20
0.0
 30
0.0
  9
$EXTMIN
 10
0.0
 20
0.0
 30
0.0
  9
$EXTMAX
 10
297.0
 20
210.0
 30
0.0
  9
$LIMMIN
 10
0.0
 20
0.0
  9
$LIMMAX
 10
297.0
 20
210.0
  9
$ORTHOMODE
 70
     0
  9
$REGENMODE
 70
     1
  9
$FILLMODE
 70
     1
  9
$QTEXTMODE
 70
     0
  9
$MIRRTEXT
 70
     1
  9
$LTSCALE
 40
1.0
  9
$ATTMODE
 70
     1
  9
$TEXTSIZE
 40
3.5
  9
$TRACEWID
 40
1.0
  9
$TEXTSTYLE
  7
Standard
  9
$CLAYER
  8
0
  9
$CELTYPE
  6
ByLayer
  9
$CECOLOR
 62
   256
  9
$CELTSCALE
 40
1.0
  9
$DISPSILH
 70
     0
  9
$DIMSCALE
 40
1.0
  9
$DIMASZ
 40
3.302
  9
$DIMEXO
 40
1.0
  9
$DIMDLI
 40
3.75
  9
$DIMRND
 40
0.0
  9
$DIMDLE
 40
0.0
  9
$DIMEXE
 40
1.0
  9
$DIMTP
 40
0.0
  9
$DIMTM
 40
0.0
  9
$DIMTXT
 40
3.5
  9
$DIMCEN
 40
2.5
  9
$DIMTSZ
 40
0.0
  9
$DIMTOL
 70
     0
  9
$DIMLIM
 70
     0
  9
$DIMTIH
 70
     1
  9
$DIMTOH
 70
     1
  9
$DIMSE1
 70
     0
  9
$DIMSE2
 70
     0
  9
$DIMTAD
 70
     1
  9
$DIMZIN
 70
     0
  9
$DIMBLK
  1

  9
$DIMASO
 70
     1
  9
$DIMSHO
 70
     1
  9
$DIMPOST
  1

  9
$DIMAPOST
  1

  9
$DIMALT
 70
     0
  9
$DIMALTD
 70
     3
  9
$DIMALTF
 40
0.0393700787
  9
$DIMLFAC
 40
1.0
  9
$DIMTOFL
 70
     1
  9
$DIMTVP
 40
0.0
  9
$DIMTIX
 70
     0
  9
$DIMSOXD
 70
     0
  9
$DIMSAH
 70
     0
  9
$DIMBLK1
  1

  9
$DIMBLK2
  1

  9
$DIMSTYLE
  2
ISO-25
  9
$DIMCLRD
 70
     0
  9
$DIMCLRE
 70
     0
  9
$DIMCLRT
 70
     0
  9
$DIMTFAC
 40
1.0
  9
$DIMGAP
 40
1.524
  9
$DIMJUST
 70
     0
  9
$DIMSD1
 70
     0
  9
$DIMSD2
 70
     0
  9
$DIMTOLJ
 70
     0
  9
$DIMTZIN
 70
     0
  9
$DIMALTZ
 70
     0
  9
$DIMALTTZ
 70
     0
  9
$DIMUPT
 70
     0
  9
$DIMDEC
 70
     2
  9
$DIMTDEC
 70
     2
  9
$DIMALTU
 70
     2
  9
$DIMALTTD
 70
     3
  9
$DIMTXSTY
  7
Standard
  9
$DIMAUNIT
 70
     0
  9
$DIMADEC
 70
     2
  9
$DIMALTRND
 40
0.0
  9
$DIMAZIN
 70
     0
  9
$DIMDSEP
 70
    44
  9
$DIMATFIT
 70
     3
  9
$DIMFRAC
 70
     0
  9
$DIMLDRBLK
  1

  9
$DIMLUNIT
 70
     2
  9
$DIMLWD
 70
    -2
  9
$DIMLWE
 70
    -2
  9
$DIMTMOVE
 70
     0
  9
$LUNITS
 70
     2
  9
$LUPREC
 70
     2
  9
$SKETCHINC
 40
1.0
  9
$FILLETRAD
 40
10.0
  9
$AUNITS
 70
     0
  9
$AUPREC
 70
     2
  9
$MENU
  1
.
  9
$ELEVATION
 40
0.0
  9
$PELEVATION
 40
0.0
  9
$THICKNESS
 40
0.0
  9
$LIMCHECK
 70
     0
  9
$CHAMFERA
 40
0.0
  9
$CHAMFERB
 40
0.0
  9
$CHAMFERC
 40
0.0
  9
$CHAMFERD
 40
0.0
  9
$SKPOLY
 70
     0
  9
$TDCREATE
 40
2457262.944670891
  9
$TDUCREATE
 40
2457262.861337558
  9
$TDUPDATE
 40
2457262.944672037
  9
$TDUUPDATE
 40
2457262.861338704
  9
$TDINDWG
 40
0.0000000116
  9
$TDUSRTIMER
 40
0.0000000116
  9
$USRTIMER
 70
     1
  9
$ANGBASE
 50
0.0
  9
$ANGDIR
 70
     0
  9
$PDMODE
 70
     0
  9
$PDSIZE
 40
-1.0
  9
$PLINEWID
 40
0.0
  9
$SPLFRAME
 70
     0
  9
$SPLINETYPE
 70
     6
  9
$SPLINESEGS
 70
     8
  9
$HANDSEED
  5
4AE
  9
$SURFTAB1
 70
     6
  9
$SURFTAB2
 70
     6
  9
$SURFTYPE
 70
     6
  9
$SURFU
 70
     6
  9
$SURFV
 70
     6
  9
$UCSBASE
  2

  9
$UCSNAME
  2

  9
$UCSORG
 10
0.0
 20
0.0
 30
0.0
  9
$UCSXDIR
 10
1.0
 20
0.0
 30
0.0
  9
$UCSYDIR
 10
0.0
 20
1.0
 30
0.0
  9
$UCSORTHOREF
  2

  9
$UCSORTHOVIEW
 70
     0
  9
$UCSORGTOP
 10
0.0
 20
0.0
 30
0.0
  9
$UCSORGBOTTOM
 10
0.0
 20
0.0
 30
0.0
  9
$UCSORGLEFT
 10
0.0
 20
0.0
 30
0.0
  9
$UCSORGRIGHT
 10
0.0
 20
0.0
 30
0.0
  9
$UCSORGFRONT
 10
0.0
 20
0.0
 30
0.0
  9
$UCSORGBACK
 10
0.0
 20
0.0
 30
0.0
  9
$PUCSBASE
  2

  9
$PUCSNAME
  2

  9
$PUCSORG
 10
0.0
 20
0.0
 30
0.0
  9
$PUCSXDIR
 10
1.0
 20
0.0
 30
0.0
  9
$PUCSYDIR
 10
0.0
 20
1.0
 30
0.0
  9
$PUCSORTHOREF
  2

  9
$PUCSORTHOVIEW
 70
     0
  9
$PUCSORGTOP
 10
0.0
 20
0.0
 30
0.0
  9
$PUCSORGBOTTOM
 10
0.0
 20
0.0
 30
0.0
  9
$PUCSORGLEFT
 10
0.0
 20
0.0
 30
0.0
  9
$PUCSORGRIGHT
 10
0.0
 20
0.0
 30
0.0
  9
$PUCSORGFRONT
 10
0.0
 20
0.0
 30
0.0
  9
$PUCSORGBACK
 10
0.0
 20
0.0
 30
0.0
  9
$USERI1
 70
     0
  9
$USERI2
 70
     0
  9
$USERI3
 70
     0
  9
$USERI4
 70
     0
  9
$USERI5
 70
     0
  9
$USERR1
 40
0.0
  9
$USERR2
 40
0.0
  9
$USERR3
 40
0.0
  9
$USERR4
 40
0.0
  9
$USERR5
 40
0.0
  9
$WORLDVIEW
 70
     1
  9
$SHADEDGE
 70
     3
  9
$SHADEDIF
 70
    70
  9
$TILEMODE
 70
     1
  9
$MAXACTVP
 70
    64
  9
$PINSBASE
 10
0.0
 20
0.0
 30
0.0
  9
$PLIMCHECK
 70
     0
  9
$PEXTMIN
 10
1.0000000000E+20
 20
1.0000000000E+20
 30
1.0000000000E+20
  9
$PEXTMAX
 10
-1.0000000000E+20
 20
-1.0000000000E+20
 30
-1.0000000000E+20
  9
$PLIMMIN
 10
0.0
 20
0.0
  9
$PLIMMAX
 10
420.0
 20
297.0
  9
$UNITMODE
 70
     0
  9
$VISRETAIN
 70
     1
  9
$PLINEGEN
 70
     0
  9
$PSLTSCALE
 70
     1
  9
$TREEDEPTH
 70
  3020
  9
$CMLSTYLE
  2
Standard
  9
$CMLJUST
 70
     0
  9
$CMLSCALE
 40
20.0
  9
$PROXYGRAPHICS
 70
     1
  9
$MEASUREMENT
 70
     1
  9
$CELWEIGHT
370
    -1
  9
$ENDCAPS
280
     0
  9
$JOINSTYLE
280
     0
  9
$LWDISPLAY
290
     1
  9
$INSUNITS
 70
     4
  9
$HYPERLINKBASE
  1

  9
$STYLESHEET
  1

  9
$XEDIT
290
     1
  9
$CEPSNTYPE
380
     0
  9
$PSTYLEMODE
290
     1
  9
$FINGERPRINTGUID
  2
{97F62B45-EF36-4039-82A8-C97E1832BD9D}
  9
$VERSIONGUID
  2
{FAEB1C32-E019-11D5-929B-00C0DF256EC4}
  9
$EXTNAMES
290
     1
  9
$PSVPSCALE
 40
0.0
  9
$OLESTARTUP
290
     0
  0
ENDSEC
  0
SECTION
  2
CLASSES
  0
CLASS
  1
ACDBDICTIONARYWDFLT
  2
AcDbDictionaryWithDefault
  3
ObjectDBX Classes
 90
        0
280
     0
281
     0
  0
CLASS
  1
VISUALSTYLE
  2
AcDbVisualStyle
  3
ObjectDBX Classes
 90
     4095
280
     0
281
     0
  0
CLASS
  1
MATERIAL
  2
AcDbMaterial
  3
ObjectDBX Classes
 90
     1153
280
     0
281
     0
  0
CLASS
  1
SCALE
  2
AcDbScale
  3
ObjectDBX Classes
 90
     1153
280
     0
281
     0
  0
CLASS
  1
TABLESTYLE
  2
AcDbTableStyle
  3
ObjectDBX Classes
 90
     4095
280
     0
281
     0
  0
CLASS
  1
MLEADERSTYLE
  2
AcDbMLeaderStyle
  3
ACDB_MLEADERSTYLE_CLASS
 90
     4095
280
     0
281
     0
  0
CLASS
  1
SUN
  2
AcDbSun
  3
SCENEOE
 90
     1153
280
     0
281
     0
  0
CLASS
  1
ACDBPLACEHOLDER
  2
AcDbPlaceHolder
  3
ObjectDBX Classes
 90
        0
280
     0
281
     0
  0
CLASS
  1
LAYOUT
  2
AcDbLayout
  3
ObjectDBX Classes
 90
        0
280
     0
281
     0
  0
ENDSEC
  0
SECTION
  2
TABLES
  0
TABLE
  2
VPORT
  5
8
330
0
100
AcDbSymbolTable
 70
     1
  0
VPORT
  5
29
330
8
100
AcDbSymbolTableRecord
100
AcDbViewportTableRecord
  2
*Active
 70
     0
 10
0.0
 20
0.0
 11
1.0
 21
1.0
 12
148.5
 22
105.0
 13
0.0
 23
0.0
 14
10.0
 24
10.0
 15
10.0
 25
10.0
 16
0.0
 26
0.0
 36
1.0
 17
0.0
 27
0.0
 37
0.0
 40
210.0
 41
1.4142857143
 42
50.0
 43
0.0
 44
0.0
 50
0.0
 51
0.0
 71
     0
 72
  2000
 73
     1
 74
     3
 75
     0
 76
     0
 77
     0
 78
     0
281
     0
 65
     1
110
0.0
120
0.0
130
0.0
111
1.0
121
0.0
131
0.0
112
0.0
122
1.0
132
0.0
 79
     0
146
0.0
  0
ENDTAB
  0
TABLE
  2
LTYPE
  5
5
330
0
100
AcDbSymbolTable
 70
     6
  0
LTYPE
  5
14
330
5
100
AcDbSymbolTableRecord
100
AcDbLinetypeTableRecord
  2
ByBlock
 70
     0
  3

 72
    65
 73
     0
 40
0.0
  0
LTYPE
  5
15
330
5
100
AcDbSymbolTableRecord
100
AcDbLinetypeTableRecord
  2
ByLayer
 70
     0
  3

 72
    65
 73
     0
 40
0.0
  0
LTYPE
  5
16
330
5
100
AcDbSymbolTableRecord
100
AcDbLinetypeTableRecord
  2
Continuous
 70
     0
  3
Solid line
 72
    65
 73
     0
 40
0.0
  0
LTYPE
  5
6E
330
5
100
AcDbSymbolTableRecord
100
AcDbLinetypeTableRecord
  2
HIDDEN
 70
     0
  3
Hidden __ __ __ __ __ __ __ __ __ __ __ __ __ __
 72
    65
 73
     2
 40
1.905
 49
1.27
 74
     0
 49
-0.635
 74
     0
  0
LTYPE
  5
6F
330
5
100
AcDbSymbolTableRecord
100
AcDbLinetypeTableRecord
  2
PHANTOM
 70
     0
  3
Phantom ______  __  __  ______  __  __  ______
 72
    65
 73
     6
 40
12.7
 49
6.35
 74
     0
 49
-1.27
 74
     0
 49
1.27
 74
     0
 49
-1.27
 74
     0
 49
1.27
 74
     0
 49
-1.27
 74
     0
  0
LTYPE
  5
70
330
5
100
AcDbSymbolTableRecord
100
AcDbLinetypeTableRecord
  2
CENTER
 70
     0
  3
Center ____ _ ____ _ ____ _ ____ _ ____ _ ____
 72
    65
 73
     4
 40
10.16
 49
6.35
 74
     0
 49
-1.27
 74
     0
 49
1.27
 74
     0
 49
-1.27
 74
     0
  0
LTYPE
  5
71
330
5
100
AcDbSymbolTableRecord
100
AcDbLinetypeTableRecord
  2
CENTERX2
 70
     0
  3
Center (2x) ________  __  ________  __  _____
 72
    65
 73
     4
 40
20.32
 49
12.7
 74
     0
 49
-2.54
 74
     0
 49
2.54
 74
     0
 49
-2.54
 74
     0
  0
LTYPE
  5
72
330
5
100
AcDbSymbolTableRecord
100
AcDbLinetypeTableRecord
  2
DOT2
 70
     0
  3
Dot (.5x) ........................................
 72
    65
 73
     2
 40
0.635
 49
0.0
 74
     0
 49
-0.635
 74
     0
  0
ENDTAB
  0
TABLE
  2
LAYER
  5
2
330
0
100
AcDbSymbolTable
 70
     2
  0
LAYER
  5
10
330
2
100
AcDbSymbolTableRecord
100
AcDbLayerTableRecord
  2
0
 70
     0
 62
     7
  6
Continuous
370
    -3
390
F
  0
LAYER
  5
73
330
2
100
AcDbSymbolTableRecord
100
AcDbLayerTableRecord
  2
FORMAT
 70
     0
 62
     7
  6
Continuous
370
    -3
390
F
  0
ENDTAB
  0
TABLE
  2
STYLE
  5
3
330
0
100
AcDbSymbolTable
 70
     3
  0
STYLE
  5
11
330
3
100
AcDbSymbolTableRecord
100
AcDbTextStyleTableRecord
  2
Standard
 70
     0
 40
0.0
 41
1.0
 50
0.0
 71
     0
 42
3.5
  3
txt
  4

  0
STYLE
  5
89
330
3
100
AcDbSymbolTableRecord
100
AcDbTextStyleTableRecord
  2
SLDTEXTSTYLE0
 70
     0
 40
0.0
 41
0.75
 50
0.0
 71
     0
 42
3.5
  3
TXT
  4

  0
STYLE
  5
8F
330
3
100
AcDbSymbolTableRecord
100
AcDbTextStyleTableRecord
  2
SLDTEXTSTYLE1
 70
     0
 40
0.0
 41
0.6923076923
 50
0.0
 71
     0
 42
3.5
  3
TXT
  4

  0
ENDTAB
  0
TABLE
  2
VIEW
  5
6
330
0
100
AcDbSymbolTable
 70
     0
  0
ENDTAB
  0
TABLE
  2
UCS
  5
7
330
0
100
AcDbSymbolTable
 70
     0
  0
ENDTAB
  0
TABLE
  2
APPID
  5
9
330
0
100
AcDbSymbolTable
 70
     1
  0
APPID
  5
12
330
9
100
AcDbSymbolTableRecord
100
AcDbRegAppTableRecord
  2
ACAD
 70
     0
  0
ENDTAB
  0
TABLE
  2
DIMSTYLE
  5
A
330
0
100
AcDbSymbolTable
 70
     1
100
AcDbDimStyleTable
  0
DIMSTYLE
105
27
330
A
100
AcDbSymbolTableRecord
100
AcDbDimStyleTableRecord
  2
ISO-25
 70
     0
 41
2.5
 42
0.625
 43
3.75
 44
1.25
 73
     0
 74
     0
 77
     1
 78
     8
140
2.5
141
2.5
143
0.0393700787
147
0.625
171
     3
172
     1
178
     0
271
     2
272
     2
274
     3
278
    44
283
     0
284
     8
340
11
  0
ENDTAB
  0
TABLE
  2
BLOCK_RECORD
  5
1
330
0
100
AcDbSymbolTable
 70
     1
  0
BLOCK_RECORD
  5
1F
330
1
100
AcDbSymbolTableRecord
100
AcDbBlockTableRecord
  2
*Model_Space
340
22
  0
BLOCK_RECORD
  5
1B
330
1
100
AcDbSymbolTableRecord
100
AcDbBlockTableRecord
  2
*Paper_Space
340
1E
  0
BLOCK_RECORD
  5
23
330
1
100
AcDbSymbolTableRecord
100
AcDbBlockTableRecord
  2
*Paper_Space0
340
26
  0
ENDTAB
  0
ENDSEC
  0
SECTION
  2
BLOCKS
  0
BLOCK
  5
20
330
1F
100
AcDbEntity
  8
0
100
AcDbBlockBegin
  2
*Model_Space
 70
     0
 10
0.0
 20
0.0
 30
0.0
  3
*Model_Space
  1

  0
ENDBLK
  5
21
330
1F
100
AcDbEntity
  8
0
100
AcDbBlockEnd
  0
BLOCK
  5
1C
330
1B
100
AcDbEntity
 67
     1
  8
0
100
AcDbBlockBegin
  2
*Paper_Space
 70
     0
 10
0.0
 20
0.0
 30
0.0
  3
*Paper_Space
  1

  0
ENDBLK
  5
1D
330
1B
100
AcDbEntity
 67
     1
  8
0
100
AcDbBlockEnd
  0
BLOCK
  5
24
330
23
100
AcDbEntity
  8
0
100
AcDbBlockBegin
  2
*Paper_Space0
 70
     0
 10
0.0
 20
0.0
 30
0.0
  3
*Paper_Space0
  1

  0
ENDBLK
  5
25
330
23
100
AcDbEntity
  8
0
100
AcDbBlockEnd
  0
ENDSEC
  0
SECTION
  2
ENTITIES
  0
LINE
  5
74
330
1F
100
AcDbEntity
  8
0
  6
Continuous
 62
     7
370
     0
100
AcDbLine
 10
292.0
 20
205.0
 30
0.0
 11
292.0
 21
5.0
 31
0.0
  0
LINE
  5
75
330
1F
100
AcDbEntity
  8
0
  6
Continuous
 62
     7
370
     0
100
AcDbLine
 10
200.0477725477
 20
34.75
 30
0.0
 11
292.0
 21
34.75
 31
0.0
  0
LINE
  5
76
330
1F
100
AcDbEntity
  8
0
  6
Continuous
 62
     7
370
     0
100
AcDbLine
 10
159.4
 20
9.25
 30
0.0
 11
292.0
 21
9.25
 31
0.0
  0
LINE
  5
77
330
1F
100
AcDbEntity
  8
0
  6
Continuous
 62
     7
370
     0
100
AcDbLine
 10
292.0
 20
22.0
 30
0.0
 11
279.0
 21
22.0
 31
0.0
  0
LINE
  5
78
330
1F
100
AcDbEntity
  8
0
  6
Continuous
 62
     7
370
     0
100
AcDbLine
 10
159.4
 20
22.0
 30
0.0
 11
200.0477725477
 21
22.0
 31
0.0
  0
LINE
  5
79
330
1F
100
AcDbEntity
  8
0
  6
Continuous
 62
     7
370
     0
100
AcDbLine
 10
200.0477725477
 20
34.75
 30
0.0
 11
200.0477725477
 21
5.0
 31
0.0
  0
LINE
  5
7A
330
1F
100
AcDbEntity
  8
0
  6
Continuous
 62
     7
370
     0
100
AcDbLine
 10
247.8
 20
5.0
 30
0.0
 11
247.8
 21
9.25
 31
0.0
  0
LINE
  5
7B
330
1F
100
AcDbEntity
  8
0
  6
Continuous
 62
     7
370
     0
100
AcDbLine
 10
279.0
 20
9.25
 30
0.0
 11
279.0
 21
15.4949693602
 31
0.0
  0
LINE
  5
7C
330
1F
100
AcDbEntity
  8
0
  6
Continuous
 62
     7
370
     0
100
AcDbLine
 10
159.4
 20
34.75
 30
0.0
 11
200.0477725477
 21
34.75
 31
0.0
  0
LINE
  5
7D
330
1F
100
AcDbEntity
  8
0
  6
Continuous
 62
     7
370
     0
100
AcDbLine
 10
292.0
 20
15.4949693602
 30
0.0
 11
279.0
 21
15.4949693602
 31
0.0
  0
LINE
  5
7E
330
1F
100
AcDbEntity
  8
0
  6
Continuous
 62
     7
370
     0
100
AcDbLine
 10
200.0477725477
 20
22.0
 30
0.0
 11
279.0
 21
22.0
 31
0.0
  0
LINE
  5
7F
330
1F
100
AcDbEntity
  8
0
  6
Continuous
 62
     7
370
     0
100
AcDbLine
 10
159.4
 20
34.75
 30
0.0
 11
159.4
 21
22.0
 31
0.0
  0
LINE
  5
80
330
1F
100
AcDbEntity
  8
0
  6
Continuous
 62
     7
370
     0
100
AcDbLine
 10
159.4
 20
22.0
 30
0.0
 11
170.5777725477
 21
22.0
 31
0.0
  0
LINE
  5
81
330
1F
100
AcDbEntity
  8
0
  6
Continuous
 62
     7
370
     0
100
AcDbLine
 10
292.0
 20
205.0
 30
0.0
 11
5.0
 21
205.0
 31
0.0
  0
LINE
  5
82
330
1F
100
AcDbEntity
  8
0
  6
Continuous
 62
     7
370
     0
100
AcDbLine
 10
5.0
 20
205.0
 30
0.0
 11
5.0
 21
5.0
 31
0.0
  0
LINE
  5
83
330
1F
100
AcDbEntity
  8
0
  6
Continuous
 62
     7
370
     0
100
AcDbLine
 10
5.0
 20
5.0
 30
0.0
 11
292.0
 21
5.0
 31
0.0
  0
LINE
  5
84
330
1F
100
AcDbEntity
  8
0
  6
Continuous
 62
     7
370
     0
100
AcDbLine
 10
170.5777725477
 20
22.0
 30
0.0
 11
159.4
 21
22.0
 31
0.0
  0
LINE
  5
85
330
1F
100
AcDbEntity
  8
0
  6
Continuous
 62
     7
370
     0
100
AcDbLine
 10
279.0
 20
15.4949693602
 30
0.0
 11
279.0
 21
22.0
 31
0.0
  0
LINE
  5
86
330
1F
100
AcDbEntity
  8
0
  6
Continuous
 62
     7
370
     0
100
AcDbLine
 10
159.4
 20
28.375
 30
0.0
 11
200.0477725477
 21
28.375
 31
0.0
  0
LINE
  5
87
330
1F
100
AcDbEntity
  8
0
  6
Continuous
 62
     7
370
     0
100
AcDbLine
 10
159.4
 20
22.0
 30
0.0
 11
159.4
 21
9.25
 31
0.0
  0
LINE
  5
88
330
1F
100
AcDbEntity
  8
0
  6
Continuous
 62
     7
370
     0
100
AcDbLine
 10
159.4
 20
5.0
 30
0.0
 11
159.4
 21
9.25
 31
0.0
  0
MTEXT
  5
8A
330
1F
100
AcDbEntity
  8
0
  6
Continuous
 62
     7
370
     0
100
AcDbMText
 10
280.2769372799
 20
19.4324449477
 30
0.0
 40
1.5
 41
0.0
 71
     1
 72
     1
  1
Blattformat
  7
SLDTEXTSTYLE0
 73
     1
 44
1.0
  0
MTEXT
  5
8B
330
1F
100
AcDbEntity
  8
0
  6
Continuous
 62
     7
370
     0
100
AcDbMText
 10
162.3415030554
 20
20.132024916
 30
0.0
 40
1.5
 41
0.0
 71
     1
 72
     1
  1
Werkstoff:
  7
SLDTEXTSTYLE0
 73
     1
 44
1.0
  0
MTEXT
  5
8C
330
1F
100
AcDbEntity
  8
0
  6
Continuous
 62
     7
370
     0
100
AcDbMText
 10
205.7519230807
 20
32.246101463
 30
0.0
 40
1.5
 41
0.0
 71
     1
 72
     1
  1
Artikelnummer
  7
SLDTEXTSTYLE0
 73
     1
 44
1.0
  0
MTEXT
  5
8D
330
1F
100
AcDbEntity
  8
0
  6
Continuous
 62
     7
370
     0
100
AcDbMText
 10
205.7519230807
 20
20.132024916
 30
0.0
 40
1.5
 41
0.0
 71
     1
 72
     1
  1
Hersteller
  7
SLDTEXTSTYLE0
 73
     1
 44
1.0
  0
MTEXT
  5
8E
330
1F
100
AcDbEntity
  8
0
  6
Continuous
 62
     7
370
     0
100
AcDbMText
 10
205.7519230807
 20
7.9000872745
 30
0.0
 40
1.5
 41
0.0
 71
     1
 72
     1
  1
Massstab: 1:5
  7
SLDTEXTSTYLE0
 73
     1
 44
1.0
  0
MTEXT
  5
90
330
1F
100
AcDbEntity
  8
0
  6
Continuous
 62
     7
370
     0
100
AcDbMText
 10
249.2782944278
 20
7.9000872745
 30
0.0
 40
1.5
 41
0.0
 71
     1
 72
     1
  1
Blatt 1 von 1
  7
SLDTEXTSTYLE1
 73
     1
 44
1.0
  0
MTEXT
  5
91
330
1F
100
AcDbEntity
  8
0
  6
Continuous
 62
     7
370
     0
100
AcDbMText
 10
283.018201252
 20
14.214493588
 30
0.0
 40
2.9104166667
 41
0.0
 71
     1
 72
     1
  1
A4
  7
SLDTEXTSTYLE0
 73
     1
 44
1.0
  0
MTEXT
  5
92
330
1F
100
AcDbEntity
  8
0
  6
Continuous
 62
     7
370
     0
100
AcDbMText
 10
178.5078638109
 20
32.6767067468
 30
0.0
 40
1.5
 41
0.0
 71
     2
 72
     1
  1
Datum
  7
SLDTEXTSTYLE0
 73
     1
 44
1.0
  0
MTEXT
  5
93
330
1F
100
AcDbEntity
  8
0
  6
Continuous
 62
     7
370
     0
100
AcDbMText
 10
178.6757516496
 20
26.1783247858
 30
0.0
 40
1.5
 41
0.0
 71
     2
 72
     1
  1
27.08.2015
  7
SLDTEXTSTYLE0
 73
     1
 44
1.0
  0
MTEXT
  5
94
330
1F
100
AcDbEntity
  8
0
  6
Continuous
 62
     7
370
     0
100
AcDbMText
 10
170.5770501882
 20
7.9264469029
 30
0.0
 40
1.5
 41
0.0
 71
     2
 72
     1
  1
Gewicht 1.494 kg
  7
SLDTEXTSTYLE0
 73
     1
 44
1.0
  0
MTEXT
  5
95
330
1F
100
AcDbEntity
  8
0
  6
Continuous
 62
     7
370
     0
100
AcDbMText
 10
162.3415030554
 20
15.2183590171
 30
0.0
 40
1.5875
 41
0.0
 71
     1
 72
     1
  1
1.0037 (S235JR)
  7
SLDTEXTSTYLE0
 73
     1
 44
1.0
  0
MTEXT
  5
96
330
1F
100
AcDbEntity
  8
0
  6
Continuous
 62
     7
370
     0
100
AcDbMText
 10
205.7519230807
 20
28.5765342567
 30
0.0
 40
4.2333333333
 41
0.0
 71
     1
 72
     1
  1
23.29293025.7
  7
SLDTEXTSTYLE0
 73
     1
 44
1.0
  0
MTEXT
  5
97
330
1F
100
AcDbEntity
  8
0
  6
Continuous
 62
     7
370
     0
100
AcDbMText
 10
262.1283772718
 20
32.3081309996
 30
0.0
 40
1.5875
 41
0.0
 71
     1
 72
     1
  1
Feuerverzinkt
  7
SLDTEXTSTYLE0
 73
     1
 44
1.0
  0
MTEXT
  5
98
330
1F
100
AcDbEntity
  8
0
  6
Continuous
 62
     7
370
     0
100
AcDbMText
 10
249.2038165615
 20
32.246101463
 30
0.0
 40
1.5
 41
0.0
 71
     1
 72
     1
  1
Oberfläche:
  7
SLDTEXTSTYLE0
 73
     1
 44
1.0
  0
MTEXT
  5
99
330
1F
100
AcDbEntity
  8
0
  6
Continuous
 62
     7
370
     0
100
AcDbMText
 10
216.9962519388
 20
17.8618823378
 30
0.0
 40
4.2333333333
 41
0.0
 71
     1
 72
     1
  1
FeNau GmbH
  7
SLDTEXTSTYLE0
 73
     1
 44
1.0
  0
LINE
  5
9A
330
1F
100
AcDbEntity
  8
0
  6
Continuous
 62
     7
370
    15
100
AcDbLine
 10
141.6633710328
 20
163.7245283391
 30
0.0
 11
141.6633710328
 21
158.7245282646
 31
0.0
  0
LINE
  5
9B
330
1F
100
AcDbEntity
  8
0
  6
Continuous
 62
     7
370
    15
100
AcDbLine
 10
141.6633710328
 20
158.7245282646
 30
0.0
 11
83.6633727017
 21
158.7245282646
 31
0.0
  0
LINE
  5
9C
330
1F
100
AcDbEntity
  8
0
  6
Continuous
 62
     7
370
    15
100
AcDbLine
 10
83.6633727017
 20
158.7245282646
 30
0.0
 11
83.6633727017
 21
163.7245283391
 31
0.0
  0
LINE
  5
9D
330
1F
100
AcDbEntity
  8
0
  6
Continuous
 62
     7
370
    15
100
AcDbLine
 10
141.6633710328
 20
163.7245283391
 30
0.0
 11
83.6633727017
 21
163.7245283391
 31
0.0
  0
LINE
  5
9E
330
1F
100
AcDbEntity
  8
0
  6
Continuous
 62
     7
370
    15
100
AcDbLine
 10
93.9633727136
 20
116.204720101
 30
0.0
 11
87.9633728477
 21
116.204720101
 31
0.0
  0
LINE
  5
9F
330
1F
100
AcDbEntity
  8
0
  6
Continuous
 62
     7
370
    15
100
AcDbLine
 10
93.9633727136
 20
118.2547205302
 30
0.0
 11
93.9633727136
 21
116.204720101
 31
0.0
  0
LINE
  5
A0
330
1F
100
AcDbEntity
  8
0
  6
Continuous
 62
     7
370
    15
100
AcDbLine
 10
87.9633728477
 20
118.2547205302
 30
0.0
 11
93.9633727136
 21
118.2547205302
 31
0.0
  0
LINE
  5
A1
330
1F
100
AcDbEntity
  8
0
  6
Continuous
 62
     7
370
    15
100
AcDbLine
 10
87.9633728477
 20
118.2547205302
 30
0.0
 11
87.9633728477
 21
116.204720101
 31
0.0
  0
LINE
  5
A2
330
1F
100
AcDbEntity
  8
0
  6
Continuous
 62
     7
370
    15
100
AcDbLine
 10
93.9633727136
 20
65.5047194275
 30
0.0
 11
93.9633727136
 21
63.4547195571
 31
0.0
  0
LINE
  5
A3
330
1F
100
AcDbEntity
  8
0
  6
Continuous
 62
     7
370
    15
100
AcDbLine
 10
93.9633727136
 20
65.5047194275
 30
0.0
 11
87.9633728477
 21
65.5047194275
 31
0.0
  0
LINE
  5
A4
330
1F
100
AcDbEntity
  8
0
  6
Continuous
 62
     7
370
    15
100
AcDbLine
 10
87.9633728477
 20
65.5047194275
 30
0.0
 11
87.9633728477
 21
63.4547195571
 31
0.0
  0
LINE
  5
A5
330
1F
100
AcDbEntity
  8
0
  6
Continuous
 62
     7
370
    15
100
AcDbLine
 10
93.9633727136
 20
63.4547195571
 30
0.0
 11
87.9633728477
 21
63.4547195571
 31
0.0
  0
LINE
  5
A6
330
1F
100
AcDbEntity
  8
0
  6
Continuous
 62
     7
370
    15
100
AcDbLine
 10
85.2633727777
 20
115.9047180029
 30
0.0
 11
85.2633727777
 21
109.9047207448
 31
0.0
  0
LINE
  5
A7
330
1F
100
AcDbEntity
  8
0
  6
Continuous
 62
     7
370
    15
100
AcDbLine
 10
87.7633728149
 20
109.9047207448
 30
0.0
 11
85.2633727777
 21
109.9047207448
 31
0.0
  0
LINE
  5
A8
330
1F
100
AcDbEntity
  8
0
  6
Continuous
 62
     7
370
    15
100
AcDbLine
 10
87.7633728149
 20
115.9047180029
 30
0.0
 11
87.7633728149
 21
109.9047207448
 31
0.0
  0
LINE
  5
A9
330
1F
100
AcDbEntity
  8
0
  6
Continuous
 62
     7
370
    15
100
AcDbLine
 10
87.7633728149
 20
115.9047180029
 30
0.0
 11
85.2633727777
 21
115.9047180029
 31
0.0
  0
LINE
  5
AA
330
1F
100
AcDbEntity
  8
0
  6
Continuous
 62
     7
370
    15
100
AcDbLine
 10
85.2633727777
 20
109.6047186467
 30
0.0
 11
85.2633727777
 21
103.6047184082
 31
0.0
  0
LINE
  5
AB
330
1F
100
AcDbEntity
  8
0
  6
Continuous
 62
     7
370
    15
100
AcDbLine
 10
87.7633728149
 20
103.6047184082
 30
0.0
 11
85.2633727777
 21
103.6047184082
 31
0.0
  0
LINE
  5
AC
330
1F
100
AcDbEntity
  8
0
  6
Continuous
 62
     7
370
    15
100
AcDbLine
 10
87.7633728149
 20
109.6047186467
 30
0.0
 11
87.7633728149
 21
103.6047184082
 31
0.0
  0
LINE
  5
AD
330
1F
100
AcDbEntity
  8
0
  6
Continuous
 62
     7
370
    15
100
AcDbLine
 10
87.7633728149
 20
109.6047186467
 30
0.0
 11
85.2633727777
 21
109.6047186467
 31
0.0
  0
LINE
  5
AE
330
1F
100
AcDbEntity
  8
0
  6
Continuous
 62
     7
370
    15
100
AcDbLine
 10
85.2633727777
 20
103.3047192904
 30
0.0
 11
85.2633727777
 21
97.304719052
 31
0.0
  0
LINE
  5
AF
330
1F
100
AcDbEntity
  8
0
  6
Continuous
 62
     7
370
    15
100
AcDbLine
 10
87.7633728149
 20
97.304719052
 30
0.0
 11
85.2633727777
 21
97.304719052
 31
0.0
  0
LINE
  5
B0
330
1F
100
AcDbEntity
  8
0
  6
Continuous
 62
     7
370
    15
100
AcDbLine
 10
87.7633728149
 20
103.3047192904
 30
0.0
 11
87.7633728149
 21
97.304719052
 31
0.0
  0
LINE
  5
B1
330
1F
100
AcDbEntity
  8
0
  6
Continuous
 62
     7
370
    15
100
AcDbLine
 10
87.7633728149
 20
103.3047192904
 30
0.0
 11
85.2633727777
 21
103.3047192904
 31
0.0
  0
LINE
  5
B2
330
1F
100
AcDbEntity
  8
0
  6
Continuous
 62
     7
370
    15
100
AcDbLine
 10
85.2633727777
 20
97.0047199341
 30
0.0
 11
85.2633727777
 21
91.0047196957
 31
0.0
  0
LINE
  5
B3
330
1F
100
AcDbEntity
  8
0
  6
Continuous
 62
     7
370
    15
100
AcDbLine
 10
87.7633728149
 20
91.0047196957
 30
0.0
 11
85.2633727777
 21
91.0047196957
 31
0.0
  0
LINE
  5
B4
330
1F
100
AcDbEntity
  8
0
  6
Continuous
 62
     7
370
    15
100
AcDbLine
 10
87.7633728149
 20
97.0047199341
 30
0.0
 11
87.7633728149
 21
91.0047196957
 31
0.0
  0
LINE
  5
B5
330
1F
100
AcDbEntity
  8
0
  6
Continuous
 62
     7
370
    15
100
AcDbLine
 10
87.7633728149
 20
97.0047199341
 30
0.0
 11
85.2633727777
 21
97.0047199341
 31
0.0
  0
LINE
  5
B6
330
1F
100
AcDbEntity
  8
0
  6
Continuous
 62
     7
370
    15
100
AcDbLine
 10
85.2633727777
 20
90.7047205779
 30
0.0
 11
85.2633727777
 21
84.7047188493
 31
0.0
  0
LINE
  5
B7
330
1F
100
AcDbEntity
  8
0
  6
Continuous
 62
     7
370
    15
100
AcDbLine
 10
87.7633728149
 20
84.7047188493
 30
0.0
 11
85.2633727777
 21
84.7047188493
 31
0.0
  0
LINE
  5
B8
330
1F
100
AcDbEntity
  8
0
  6
Continuous
 62
     7
370
    15
100
AcDbLine
 10
87.7633728149
 20
90.7047205779
 30
0.0
 11
87.7633728149
 21
84.7047188493
 31
0.0
  0
LINE
  5
B9
330
1F
100
AcDbEntity
  8
0
  6
Continuous
 62
     7
370
    15
100
AcDbLine
 10
87.7633728149
 20
90.7047205779
 30
0.0
 11
85.2633727777
 21
90.7047205779
 31
0.0
  0
LINE
  5
BA
330
1F
100
AcDbEntity
  8
0
  6
Continuous
 62
     7
370
    15
100
AcDbLine
 10
85.2633727777
 20
84.4047197315
 30
0.0
 11
85.2633727777
 21
78.4047194931
 31
0.0
  0
LINE
  5
BB
330
1F
100
AcDbEntity
  8
0
  6
Continuous
 62
     7
370
    15
100
AcDbLine
 10
87.7633728149
 20
78.4047194931
 30
0.0
 11
85.2633727777
 21
78.4047194931
 31
0.0
  0
LINE
  5
BC
330
1F
100
AcDbEntity
  8
0
  6
Continuous
 62
     7
370
    15
100
AcDbLine
 10
87.7633728149
 20
84.4047197315
 30
0.0
 11
87.7633728149
 21
78.4047194931
 31
0.0
  0
LINE
  5
BD
330
1F
100
AcDbEntity
  8
0
  6
Continuous
 62
     7
370
    15
100
AcDbLine
 10
87.7633728149
 20
84.4047197315
 30
0.0
 11
85.2633727777
 21
84.4047197315
 31
0.0
  0
LINE
  5
BE
330
1F
100
AcDbEntity
  8
0
  6
Continuous
 62
     7
370
    15
100
AcDbLine
 10
85.2633727777
 20
78.1047188851
 30
0.0
 11
85.2633727777
 21
72.1047193917
 31
0.0
  0
LINE
  5
BF
330
1F
100
AcDbEntity
  8
0
  6
Continuous
 62
     7
370
    15
100
AcDbLine
 10
87.7633728149
 20
72.1047193917
 30
0.0
 11
85.2633727777
 21
72.1047193917
 31
0.0
  0
LINE
  5
C0
330
1F
100
AcDbEntity
  8
0
  6
Continuous
 62
     7
370
    15
100
AcDbLine
 10
87.7633728149
 20
78.1047188851
 30
0.0
 11
87.7633728149
 21
72.1047193917
 31
0.0
  0
LINE
  5
C1
330
1F
100
AcDbEntity
  8
0
  6
Continuous
 62
     7
370
    15
100
AcDbLine
 10
87.7633728149
 20
78.1047188851
 30
0.0
 11
85.2633727777
 21
78.1047188851
 31
0.0
  0
LINE
  5
C2
330
1F
100
AcDbEntity
  8
0
  6
Continuous
 62
     7
370
    15
100
AcDbLine
 10
85.2633727777
 20
71.8047195288
 30
0.0
 11
85.2633727777
 21
65.8047196629
 31
0.0
  0
LINE
  5
C3
330
1F
100
AcDbEntity
  8
0
  6
Continuous
 62
     7
370
    15
100
AcDbLine
 10
87.7633728149
 20
65.8047196629
 30
0.0
 11
85.2633727777
 21
65.8047196629
 31
0.0
  0
LINE
  5
C4
330
1F
100
AcDbEntity
  8
0
  6
Continuous
 62
     7
370
    15
100
AcDbLine
 10
87.7633728149
 20
71.8047195288
 30
0.0
 11
87.7633728149
 21
65.8047196629
 31
0.0
  0
LINE
  5
C5
330
1F
100
AcDbEntity
  8
0
  6
Continuous
 62
     7
370
    15
100
AcDbLine
 10
87.7633728149
 20
71.8047195288
 30
0.0
 11
85.2633727777
 21
71.8047195288
 31
0.0
  0
LINE
  5
C6
330
1F
100
AcDbEntity
  8
0
  6
Continuous
 62
     7
370
    15
100
AcDbLine
 10
93.9633727136
 20
71.8047195288
 30
0.0
 11
93.9633727136
 21
65.8047196629
 31
0.0
  0
LINE
  5
C7
330
1F
100
AcDbEntity
  8
0
  6
Continuous
 62
     7
370
    15
100
AcDbLine
 10
93.9633727136
 20
71.8047195288
 30
0.0
 11
87.9633728477
 21
71.8047195288
 31
0.0
  0
LINE
  5
C8
330
1F
100
AcDbEntity
  8
0
  6
Continuous
 62
     7
370
    15
100
AcDbLine
 10
87.9633728477
 20
71.8047195288
 30
0.0
 11
87.9633728477
 21
65.8047196629
 31
0.0
  0
LINE
  5
C9
330
1F
100
AcDbEntity
  8
0
  6
Continuous
 62
     7
370
    15
100
AcDbLine
 10
93.9633727136
 20
65.8047196629
 30
0.0
 11
87.9633728477
 21
65.8047196629
 31
0.0
  0
LINE
  5
CA
330
1F
100
AcDbEntity
  8
0
  6
Continuous
 62
     7
370
    15
100
AcDbLine
 10
93.9633727136
 20
78.1047188851
 30
0.0
 11
93.9633727136
 21
72.1047193917
 31
0.0
  0
LINE
  5
CB
330
1F
100
AcDbEntity
  8
0
  6
Continuous
 62
     7
370
    15
100
AcDbLine
 10
93.9633727136
 20
78.1047188851
 30
0.0
 11
87.9633728477
 21
78.1047188851
 31
0.0
  0
LINE
  5
CC
330
1F
100
AcDbEntity
  8
0
  6
Continuous
 62
     7
370
    15
100
AcDbLine
 10
87.9633728477
 20
78.1047188851
 30
0.0
 11
87.9633728477
 21
72.1047193917
 31
0.0
  0
LINE
  5
CD
330
1F
100
AcDbEntity
  8
0
  6
Continuous
 62
     7
370
    15
100
AcDbLine
 10
93.9633727136
 20
72.1047193917
 30
0.0
 11
87.9633728477
 21
72.1047193917
 31
0.0
  0
LINE
  5
CE
330
1F
100
AcDbEntity
  8
0
  6
Continuous
 62
     7
370
    15
100
AcDbLine
 10
93.9633727136
 20
84.4047197315
 30
0.0
 11
93.9633727136
 21
78.4047194931
 31
0.0
  0
LINE
  5
CF
330
1F
100
AcDbEntity
  8
0
  6
Continuous
 62
     7
370
    15
100
AcDbLine
 10
93.9633727136
 20
84.4047197315
 30
0.0
 11
87.9633728477
 21
84.4047197315
 31
0.0
  0
LINE
  5
D0
330
1F
100
AcDbEntity
  8
0
  6
Continuous
 62
     7
370
    15
100
AcDbLine
 10
87.9633728477
 20
84.4047197315
 30
0.0
 11
87.9633728477
 21
78.4047194931
 31
0.0
  0
LINE
  5
D1
330
1F
100
AcDbEntity
  8
0
  6
Continuous
 62
     7
370
    15
100
AcDbLine
 10
93.9633727136
 20
78.4047194931
 30
0.0
 11
87.9633728477
 21
78.4047194931
 31
0.0
  0
LINE
  5
D2
330
1F
100
AcDbEntity
  8
0
  6
Continuous
 62
     7
370
    15
100
AcDbLine
 10
93.9633727136
 20
90.7047205779
 30
0.0
 11
93.9633727136
 21
84.7047188493
 31
0.0
  0
LINE
  5
D3
330
1F
100
AcDbEntity
  8
0
  6
Continuous
 62
     7
370
    15
100
AcDbLine
 10
93.9633727136
 20
90.7047205779
 30
0.0
 11
87.9633728477
 21
90.7047205779
 31
0.0
  0
LINE
  5
D4
330
1F
100
AcDbEntity
  8
0
  6
Continuous
 62
     7
370
    15
100
AcDbLine
 10
87.9633728477
 20
90.7047205779
 30
0.0
 11
87.9633728477
 21
84.7047188493
 31
0.0
  0
LINE
  5
D5
330
1F
100
AcDbEntity
  8
0
  6
Continuous
 62
     7
370
    15
100
AcDbLine
 10
93.9633727136
 20
84.7047188493
 30
0.0
 11
87.9633728477
 21
84.7047188493
 31
0.0
  0
LINE
  5
D6
330
1F
100
AcDbEntity
  8
0
  6
Continuous
 62
     7
370
    15
100
AcDbLine
 10
93.9633727136
 20
97.0047199341
 30
0.0
 11
93.9633727136
 21
91.0047196957
 31
0.0
  0
LINE
  5
D7
330
1F
100
AcDbEntity
  8
0
  6
Continuous
 62
     7
370
    15
100
AcDbLine
 10
93.9633727136
 20
97.0047199341
 30
0.0
 11
87.9633728477
 21
97.0047199341
 31
0.0
  0
LINE
  5
D8
330
1F
100
AcDbEntity
  8
0
  6
Continuous
 62
     7
370
    15
100
AcDbLine
 10
87.9633728477
 20
97.0047199341
 30
0.0
 11
87.9633728477
 21
91.0047196957
 31
0.0
  0
LINE
  5
D9
330
1F
100
AcDbEntity
  8
0
  6
Continuous
 62
     7
370
    15
100
AcDbLine
 10
93.9633727136
 20
91.0047196957
 30
0.0
 11
87.9633728477
 21
91.0047196957
 31
0.0
  0
LINE
  5
DA
330
1F
100
AcDbEntity
  8
0
  6
Continuous
 62
     7
370
    15
100
AcDbLine
 10
93.9633727136
 20
103.3047192904
 30
0.0
 11
93.9633727136
 21
97.304719052
 31
0.0
  0
LINE
  5
DB
330
1F
100
AcDbEntity
  8
0
  6
Continuous
 62
     7
370
    15
100
AcDbLine
 10
93.9633727136
 20
103.3047192904
 30
0.0
 11
87.9633728477
 21
103.3047192904
 31
0.0
  0
LINE
  5
DC
330
1F
100
AcDbEntity
  8
0
  6
Continuous
 62
     7
370
    15
100
AcDbLine
 10
87.9633728477
 20
103.3047192904
 30
0.0
 11
87.9633728477
 21
97.304719052
 31
0.0
  0
LINE
  5
DD
330
1F
100
AcDbEntity
  8
0
  6
Continuous
 62
     7
370
    15
100
AcDbLine
 10
93.9633727136
 20
97.304719052
 30
0.0
 11
87.9633728477
 21
97.304719052
 31
0.0
  0
LINE
  5
DE
330
1F
100
AcDbEntity
  8
0
  6
Continuous
 62
     7
370
    15
100
AcDbLine
 10
93.9633727136
 20
109.6047186467
 30
0.0
 11
93.9633727136
 21
103.6047184082
 31
0.0
  0
LINE
  5
DF
330
1F
100
AcDbEntity
  8
0
  6
Continuous
 62
     7
370
    15
100
AcDbLine
 10
93.9633727136
 20
109.6047186467
 30
0.0
 11
87.9633728477
 21
109.6047186467
 31
0.0
  0
LINE
  5
E0
330
1F
100
AcDbEntity
  8
0
  6
Continuous
 62
     7
370
    15
100
AcDbLine
 10
87.9633728477
 20
109.6047186467
 30
0.0
 11
87.9633728477
 21
103.6047184082
 31
0.0
  0
LINE
  5
E1
330
1F
100
AcDbEntity
  8
0
  6
Continuous
 62
     7
370
    15
100
AcDbLine
 10
93.9633727136
 20
103.6047184082
 30
0.0
 11
87.9633728477
 21
103.6047184082
 31
0.0
  0
LINE
  5
E2
330
1F
100
AcDbEntity
  8
0
  6
Continuous
 62
     7
370
    15
100
AcDbLine
 10
93.9633727136
 20
115.9047180029
 30
0.0
 11
93.9633727136
 21
109.9047207448
 31
0.0
  0
LINE
  5
E3
330
1F
100
AcDbEntity
  8
0
  6
Continuous
 62
     7
370
    15
100
AcDbLine
 10
93.9633727136
 20
115.9047180029
 30
0.0
 11
87.9633728477
 21
115.9047180029
 31
0.0
  0
LINE
  5
E4
330
1F
100
AcDbEntity
  8
0
  6
Continuous
 62
     7
370
    15
100
AcDbLine
 10
87.9633728477
 20
115.9047180029
 30
0.0
 11
87.9633728477
 21
109.9047207448
 31
0.0
  0
LINE
  5
E5
330
1F
100
AcDbEntity
  8
0
  6
Continuous
 62
     7
370
    15
100
AcDbLine
 10
93.9633727136
 20
109.9047207448
 30
0.0
 11
87.9633728477
 21
109.9047207448
 31
0.0
  0
LINE
  5
E6
330
1F
100
AcDbEntity
  8
0
  6
Continuous
 62
     7
370
    15
100
AcDbLine
 10
100.1633733573
 20
116.204720101
 30
0.0
 11
94.1633723739
 21
116.204720101
 31
0.0
  0
LINE
  5
E7
330
1F
100
AcDbEntity
  8
0
  6
Continuous
 62
     7
370
    15
100
AcDbLine
 10
100.1633733573
 20
118.2547205302
 30
0.0
 11
100.1633733573
 21
116.204720101
 31
0.0
  0
LINE
  5
E8
330
1F
100
AcDbEntity
  8
0
  6
Continuous
 62
     7
370
    15
100
AcDbLine
 10
94.1633723739
 20
118.2547205302
 30
0.0
 11
100.1633733573
 21
118.2547205302
 31
0.0
  0
LINE
  5
E9
330
1F
100
AcDbEntity
  8
0
  6
Continuous
 62
     7
370
    15
100
AcDbLine
 10
94.1633723739
 20
118.2547205302
 30
0.0
 11
94.1633723739
 21
116.204720101
 31
0.0
  0
LINE
  5
EA
330
1F
100
AcDbEntity
  8
0
  6
Continuous
 62
     7
370
    15
100
AcDbLine
 10
100.1633733573
 20
65.5047194275
 30
0.0
 11
100.1633733573
 21
63.4547195571
 31
0.0
  0
LINE
  5
EB
330
1F
100
AcDbEntity
  8
0
  6
Continuous
 62
     7
370
    15
100
AcDbLine
 10
100.1633733573
 20
65.5047194275
 30
0.0
 11
94.1633723739
 21
65.5047194275
 31
0.0
  0
LINE
  5
EC
330
1F
100
AcDbEntity
  8
0
  6
Continuous
 62
     7
370
    15
100
AcDbLine
 10
94.1633723739
 20
65.5047194275
 30
0.0
 11
94.1633723739
 21
63.4547195571
 31
0.0
  0
LINE
  5
ED
330
1F
100
AcDbEntity
  8
0
  6
Continuous
 62
     7
370
    15
100
AcDbLine
 10
100.1633733573
 20
63.4547195571
 30
0.0
 11
94.1633723739
 21
63.4547195571
 31
0.0
  0
LINE
  5
EE
330
1F
100
AcDbEntity
  8
0
  6
Continuous
 62
     7
370
    15
100
AcDbLine
 10
100.1633733573
 20
71.8047195288
 30
0.0
 11
100.1633733573
 21
65.8047196629
 31
0.0
  0
LINE
  5
EF
330
1F
100
AcDbEntity
  8
0
  6
Continuous
 62
     7
370
    15
100
AcDbLine
 10
100.1633733573
 20
71.8047195288
 30
0.0
 11
94.1633723739
 21
71.8047195288
 31
0.0
  0
LINE
  5
F0
330
1F
100
AcDbEntity
  8
0
  6
Continuous
 62
     7
370
    15
100
AcDbLine
 10
94.1633723739
 20
71.8047195288
 30
0.0
 11
94.1633723739
 21
65.8047196629
 31
0.0
  0
LINE
  5
F1
330
1F
100
AcDbEntity
  8
0
  6
Continuous
 62
     7
370
    15
100
AcDbLine
 10
100.1633733573
 20
65.8047196629
 30
0.0
 11
94.1633723739
 21
65.8047196629
 31
0.0
  0
LINE
  5
F2
330
1F
100
AcDbEntity
  8
0
  6
Continuous
 62
     7
370
    15
100
AcDbLine
 10
100.1633733573
 20
78.1047188851
 30
0.0
 11
100.1633733573
 21
72.1047193917
 31
0.0
  0
LINE
  5
F3
330
1F
100
AcDbEntity
  8
0
  6
Continuous
 62
     7
370
    15
100
AcDbLine
 10
100.1633733573
 20
78.1047188851
 30
0.0
 11
94.1633723739
 21
78.1047188851
 31
0.0
  0
LINE
  5
F4
330
1F
100
AcDbEntity
  8
0
  6
Continuous
 62
     7
370
    15
100
AcDbLine
 10
94.1633723739
 20
78.1047188851
 30
0.0
 11
94.1633723739
 21
72.1047193917
 31
0.0
  0
LINE
  5
F5
330
1F
100
AcDbEntity
  8
0
  6
Continuous
 62
     7
370
    15
100
AcDbLine
 10
100.1633733573
 20
72.1047193917
 30
0.0
 11
94.1633723739
 21
72.1047193917
 31
0.0
  0
LINE
  5
F6
330
1F
100
AcDbEntity
  8
0
  6
Continuous
 62
     7
370
    15
100
AcDbLine
 10
100.1633733573
 20
84.4047197315
 30
0.0
 11
100.1633733573
 21
78.4047194931
 31
0.0
  0
LINE
  5
F7
330
1F
100
AcDbEntity
  8
0
  6
Continuous
 62
     7
370
    15
100
AcDbLine
 10
100.1633733573
 20
84.4047197315
 30
0.0
 11
94.1633723739
 21
84.4047197315
 31
0.0
  0
LINE
  5
F8
330
1F
100
AcDbEntity
  8
0
  6
Continuous
 62
     7
370
    15
100
AcDbLine
 10
94.1633723739
 20
84.4047197315
 30
0.0
 11
94.1633723739
 21
78.4047194931
 31
0.0
  0
LINE
  5
F9
330
1F
100
AcDbEntity
  8
0
  6
Continuous
 62
     7
370
    15
100
AcDbLine
 10
100.1633733573
 20
78.4047194931
 30
0.0
 11
94.1633723739
 21
78.4047194931
 31
0.0
  0
LINE
  5
FA
330
1F
100
AcDbEntity
  8
0
  6
Continuous
 62
     7
370
    15
100
AcDbLine
 10
100.1633733573
 20
90.7047205779
 30
0.0
 11
100.1633733573
 21
84.7047188493
 31
0.0
  0
LINE
  5
FB
330
1F
100
AcDbEntity
  8
0
  6
Continuous
 62
     7
370
    15
100
AcDbLine
 10
100.1633733573
 20
90.7047205779
 30
0.0
 11
94.1633723739
 21
90.7047205779
 31
0.0
  0
LINE
  5
FC
330
1F
100
AcDbEntity
  8
0
  6
Continuous
 62
     7
370
    15
100
AcDbLine
 10
94.1633723739
 20
90.7047205779
 30
0.0
 11
94.1633723739
 21
84.7047188493
 31
0.0
  0
LINE
  5
FD
330
1F
100
AcDbEntity
  8
0
  6
Continuous
 62
     7
370
    15
100
AcDbLine
 10
100.1633733573
 20
84.7047188493
 30
0.0
 11
94.1633723739
 21
84.7047188493
 31
0.0
  0
LINE
  5
FE
330
1F
100
AcDbEntity
  8
0
  6
Continuous
 62
     7
370
    15
100
AcDbLine
 10
100.1633733573
 20
97.0047199341
 30
0.0
 11
100.1633733573
 21
91.0047196957
 31
0.0
  0
LINE
  5
FF
330
1F
100
AcDbEntity
  8
0
  6
Continuous
 62
     7
370
    15
100
AcDbLine
 10
100.1633733573
 20
97.0047199341
 30
0.0
 11
94.1633723739
 21
97.0047199341
 31
0.0
  0
LINE
  5
100
330
1F
100
AcDbEntity
  8
0
  6
Continuous
 62
     7
370
    15
100
AcDbLine
 10
94.1633723739
 20
97.0047199341
 30
0.0
 11
94.1633723739
 21
91.0047196957
 31
0.0
  0
LINE
  5
101
330
1F
100
AcDbEntity
  8
0
  6
Continuous
 62
     7
370
    15
100
AcDbLine
 10
100.1633733573
 20
91.0047196957
 30
0.0
 11
94.1633723739
 21
91.0047196957
 31
0.0
  0
LINE
  5
102
330
1F
100
AcDbEntity
  8
0
  6
Continuous
 62
     7
370
    15
100
AcDbLine
 10
100.1633733573
 20
103.3047192904
 30
0.0
 11
100.1633733573
 21
97.304719052
 31
0.0
  0
LINE
  5
103
330
1F
100
AcDbEntity
  8
0
  6
Continuous
 62
     7
370
    15
100
AcDbLine
 10
100.1633733573
 20
103.3047192904
 30
0.0
 11
94.1633723739
 21
103.3047192904
 31
0.0
  0
LINE
  5
104
330
1F
100
AcDbEntity
  8
0
  6
Continuous
 62
     7
370
    15
100
AcDbLine
 10
94.1633723739
 20
103.3047192904
 30
0.0
 11
94.1633723739
 21
97.304719052
 31
0.0
  0
LINE
  5
105
330
1F
100
AcDbEntity
  8
0
  6
Continuous
 62
     7
370
    15
100
AcDbLine
 10
100.1633733573
 20
97.304719052
 30
0.0
 11
94.1633723739
 21
97.304719052
 31
0.0
  0
LINE
  5
106
330
1F
100
AcDbEntity
  8
0
  6
Continuous
 62
     7
370
    15
100
AcDbLine
 10
100.1633733573
 20
109.6047186467
 30
0.0
 11
100.1633733573
 21
103.6047184082
 31
0.0
  0
LINE
  5
107
330
1F
100
AcDbEntity
  8
0
  6
Continuous
 62
     7
370
    15
100
AcDbLine
 10
100.1633733573
 20
109.6047186467
 30
0.0
 11
94.1633723739
 21
109.6047186467
 31
0.0
  0
LINE
  5
108
330
1F
100
AcDbEntity
  8
0
  6
Continuous
 62
     7
370
    15
100
AcDbLine
 10
94.1633723739
 20
109.6047186467
 30
0.0
 11
94.1633723739
 21
103.6047184082
 31
0.0
  0
LINE
  5
109
330
1F
100
AcDbEntity
  8
0
  6
Continuous
 62
     7
370
    15
100
AcDbLine
 10
100.1633733573
 20
103.6047184082
 30
0.0
 11
94.1633723739
 21
103.6047184082
 31
0.0
  0
LINE
  5
10A
330
1F
100
AcDbEntity
  8
0
  6
Continuous
 62
     7
370
    15
100
AcDbLine
 10
100.1633733573
 20
115.9047180029
 30
0.0
 11
100.1633733573
 21
109.9047207448
 31
0.0
  0
LINE
  5
10B
330
1F
100
AcDbEntity
  8
0
  6
Continuous
 62
     7
370
    15
100
AcDbLine
 10
100.1633733573
 20
115.9047180029
 30
0.0
 11
94.1633723739
 21
115.9047180029
 31
0.0
  0
LINE
  5
10C
330
1F
100
AcDbEntity
  8
0
  6
Continuous
 62
     7
370
    15
100
AcDbLine
 10
94.1633723739
 20
115.9047180029
 30
0.0
 11
94.1633723739
 21
109.9047207448
 31
0.0
  0
LINE
  5
10D
330
1F
100
AcDbEntity
  8
0
  6
Continuous
 62
     7
370
    15
100
AcDbLine
 10
100.1633733573
 20
109.9047207448
 30
0.0
 11
94.1633723739
 21
109.9047207448
 31
0.0
  0
LINE
  5
10E
330
1F
100
AcDbEntity
  8
0
  6
Continuous
 62
     7
370
    15
100
AcDbLine
 10
106.363372511
 20
116.204720101
 30
0.0
 11
100.3633722725
 21
116.204720101
 31
0.0
  0
LINE
  5
10F
330
1F
100
AcDbEntity
  8
0
  6
Continuous
 62
     7
370
    15
100
AcDbLine
 10
106.363372511
 20
118.2547205302
 30
0.0
 11
106.363372511
 21
116.204720101
 31
0.0
  0
LINE
  5
110
330
1F
100
AcDbEntity
  8
0
  6
Continuous
 62
     7
370
    15
100
AcDbLine
 10
100.3633722725
 20
118.2547205302
 30
0.0
 11
106.363372511
 21
118.2547205302
 31
0.0
  0
LINE
  5
111
330
1F
100
AcDbEntity
  8
0
  6
Continuous
 62
     7
370
    15
100
AcDbLine
 10
100.3633722725
 20
118.2547205302
 30
0.0
 11
100.3633722725
 21
116.204720101
 31
0.0
  0
LINE
  5
112
330
1F
100
AcDbEntity
  8
0
  6
Continuous
 62
     7
370
    15
100
AcDbLine
 10
106.363372511
 20
65.5047194275
 30
0.0
 11
106.363372511
 21
63.4547195571
 31
0.0
  0
LINE
  5
113
330
1F
100
AcDbEntity
  8
0
  6
Continuous
 62
     7
370
    15
100
AcDbLine
 10
106.363372511
 20
65.5047194275
 30
0.0
 11
100.3633722725
 21
65.5047194275
 31
0.0
  0
LINE
  5
114
330
1F
100
AcDbEntity
  8
0
  6
Continuous
 62
     7
370
    15
100
AcDbLine
 10
100.3633722725
 20
65.5047194275
 30
0.0
 11
100.3633722725
 21
63.4547195571
 31
0.0
  0
LINE
  5
115
330
1F
100
AcDbEntity
  8
0
  6
Continuous
 62
     7
370
    15
100
AcDbLine
 10
106.363372511
 20
63.4547195571
 30
0.0
 11
100.3633722725
 21
63.4547195571
 31
0.0
  0
LINE
  5
116
330
1F
100
AcDbEntity
  8
0
  6
Continuous
 62
     7
370
    15
100
AcDbLine
 10
106.363372511
 20
71.8047195288
 30
0.0
 11
106.363372511
 21
65.8047196629
 31
0.0
  0
LINE
  5
117
330
1F
100
AcDbEntity
  8
0
  6
Continuous
 62
     7
370
    15
100
AcDbLine
 10
106.363372511
 20
71.8047195288
 30
0.0
 11
100.3633722725
 21
71.8047195288
 31
0.0
  0
LINE
  5
118
330
1F
100
AcDbEntity
  8
0
  6
Continuous
 62
     7
370
    15
100
AcDbLine
 10
100.3633722725
 20
71.8047195288
 30
0.0
 11
100.3633722725
 21
65.8047196629
 31
0.0
  0
LINE
  5
119
330
1F
100
AcDbEntity
  8
0
  6
Continuous
 62
     7
370
    15
100
AcDbLine
 10
106.363372511
 20
65.8047196629
 30
0.0
 11
100.3633722725
 21
65.8047196629
 31
0.0
  0
LINE
  5
11A
330
1F
100
AcDbEntity
  8
0
  6
Continuous
 62
     7
370
    15
100
AcDbLine
 10
106.363372511
 20
78.1047188851
 30
0.0
 11
106.363372511
 21
72.1047193917
 31
0.0
  0
LINE
  5
11B
330
1F
100
AcDbEntity
  8
0
  6
Continuous
 62
     7
370
    15
100
AcDbLine
 10
106.363372511
 20
78.1047188851
 30
0.0
 11
100.3633722725
 21
78.1047188851
 31
0.0
  0
LINE
  5
11C
330
1F
100
AcDbEntity
  8
0
  6
Continuous
 62
     7
370
    15
100
AcDbLine
 10
100.3633722725
 20
78.1047188851
 30
0.0
 11
100.3633722725
 21
72.1047193917
 31
0.0
  0
LINE
  5
11D
330
1F
100
AcDbEntity
  8
0
  6
Continuous
 62
     7
370
    15
100
AcDbLine
 10
106.363372511
 20
72.1047193917
 30
0.0
 11
100.3633722725
 21
72.1047193917
 31
0.0
  0
LINE
  5
11E
330
1F
100
AcDbEntity
  8
0
  6
Continuous
 62
     7
370
    15
100
AcDbLine
 10
106.363372511
 20
84.4047197315
 30
0.0
 11
106.363372511
 21
78.4047194931
 31
0.0
  0
LINE
  5
11F
330
1F
100
AcDbEntity
  8
0
  6
Continuous
 62
     7
370
    15
100
AcDbLine
 10
106.363372511
 20
84.4047197315
 30
0.0
 11
100.3633722725
 21
84.4047197315
 31
0.0
  0
LINE
  5
120
330
1F
100
AcDbEntity
  8
0
  6
Continuous
 62
     7
370
    15
100
AcDbLine
 10
100.3633722725
 20
84.4047197315
 30
0.0
 11
100.3633722725
 21
78.4047194931
 31
0.0
  0
LINE
  5
121
330
1F
100
AcDbEntity
  8
0
  6
Continuous
 62
     7
370
    15
100
AcDbLine
 10
106.363372511
 20
78.4047194931
 30
0.0
 11
100.3633722725
 21
78.4047194931
 31
0.0
  0
LINE
  5
122
330
1F
100
AcDbEntity
  8
0
  6
Continuous
 62
     7
370
    15
100
AcDbLine
 10
106.363372511
 20
90.7047205779
 30
0.0
 11
106.363372511
 21
84.7047188493
 31
0.0
  0
LINE
  5
123
330
1F
100
AcDbEntity
  8
0
  6
Continuous
 62
     7
370
    15
100
AcDbLine
 10
106.363372511
 20
90.7047205779
 30
0.0
 11
100.3633722725
 21
90.7047205779
 31
0.0
  0
LINE
  5
124
330
1F
100
AcDbEntity
  8
0
  6
Continuous
 62
     7
370
    15
100
AcDbLine
 10
100.3633722725
 20
90.7047205779
 30
0.0
 11
100.3633722725
 21
84.7047188493
 31
0.0
  0
LINE
  5
125
330
1F
100
AcDbEntity
  8
0
  6
Continuous
 62
     7
370
    15
100
AcDbLine
 10
106.363372511
 20
84.7047188493
 30
0.0
 11
100.3633722725
 21
84.7047188493
 31
0.0
  0
LINE
  5
126
330
1F
100
AcDbEntity
  8
0
  6
Continuous
 62
     7
370
    15
100
AcDbLine
 10
106.363372511
 20
97.0047199341
 30
0.0
 11
106.363372511
 21
91.0047196957
 31
0.0
  0
LINE
  5
127
330
1F
100
AcDbEntity
  8
0
  6
Continuous
 62
     7
370
    15
100
AcDbLine
 10
106.363372511
 20
97.0047199341
 30
0.0
 11
100.3633722725
 21
97.0047199341
 31
0.0
  0
LINE
  5
128
330
1F
100
AcDbEntity
  8
0
  6
Continuous
 62
     7
370
    15
100
AcDbLine
 10
100.3633722725
 20
97.0047199341
 30
0.0
 11
100.3633722725
 21
91.0047196957
 31
0.0
  0
LINE
  5
129
330
1F
100
AcDbEntity
  8
0
  6
Continuous
 62
     7
370
    15
100
AcDbLine
 10
106.363372511
 20
91.0047196957
 30
0.0
 11
100.3633722725
 21
91.0047196957
 31
0.0
  0
LINE
  5
12A
330
1F
100
AcDbEntity
  8
0
  6
Continuous
 62
     7
370
    15
100
AcDbLine
 10
106.363372511
 20
103.3047192904
 30
0.0
 11
106.363372511
 21
97.304719052
 31
0.0
  0
LINE
  5
12B
330
1F
100
AcDbEntity
  8
0
  6
Continuous
 62
     7
370
    15
100
AcDbLine
 10
106.363372511
 20
103.3047192904
 30
0.0
 11
100.3633722725
 21
103.3047192904
 31
0.0
  0
LINE
  5
12C
330
1F
100
AcDbEntity
  8
0
  6
Continuous
 62
     7
370
    15
100
AcDbLine
 10
100.3633722725
 20
103.3047192904
 30
0.0
 11
100.3633722725
 21
97.304719052
 31
0.0
  0
LINE
  5
12D
330
1F
100
AcDbEntity
  8
0
  6
Continuous
 62
     7
370
    15
100
AcDbLine
 10
106.363372511
 20
97.304719052
 30
0.0
 11
100.3633722725
 21
97.304719052
 31
0.0
  0
LINE
  5
12E
330
1F
100
AcDbEntity
  8
0
  6
Continuous
 62
     7
370
    15
100
AcDbLine
 10
106.363372511
 20
109.6047186467
 30
0.0
 11
106.363372511
 21
103.6047184082
 31
0.0
  0
LINE
  5
12F
330
1F
100
AcDbEntity
  8
0
  6
Continuous
 62
     7
370
    15
100
AcDbLine
 10
106.363372511
 20
109.6047186467
 30
0.0
 11
100.3633722725
 21
109.6047186467
 31
0.0
  0
LINE
  5
130
330
1F
100
AcDbEntity
  8
0
  6
Continuous
 62
     7
370
    15
100
AcDbLine
 10
100.3633722725
 20
109.6047186467
 30
0.0
 11
100.3633722725
 21
103.6047184082
 31
0.0
  0
LINE
  5
131
330
1F
100
AcDbEntity
  8
0
  6
Continuous
 62
     7
370
    15
100
AcDbLine
 10
106.363372511
 20
103.6047184082
 30
0.0
 11
100.3633722725
 21
103.6047184082
 31
0.0
  0
LINE
  5
132
330
1F
100
AcDbEntity
  8
0
  6
Continuous
 62
     7
370
    15
100
AcDbLine
 10
106.363372511
 20
115.9047180029
 30
0.0
 11
106.363372511
 21
109.9047207448
 31
0.0
  0
LINE
  5
133
330
1F
100
AcDbEntity
  8
0
  6
Continuous
 62
     7
370
    15
100
AcDbLine
 10
106.363372511
 20
115.9047180029
 30
0.0
 11
100.3633722725
 21
115.9047180029
 31
0.0
  0
LINE
  5
134
330
1F
100
AcDbEntity
  8
0
  6
Continuous
 62
     7
370
    15
100
AcDbLine
 10
100.3633722725
 20
115.9047180029
 30
0.0
 11
100.3633722725
 21
109.9047207448
 31
0.0
  0
LINE
  5
135
330
1F
100
AcDbEntity
  8
0
  6
Continuous
 62
     7
370
    15
100
AcDbLine
 10
106.363372511
 20
109.9047207448
 30
0.0
 11
100.3633722725
 21
109.9047207448
 31
0.0
  0
LINE
  5
136
330
1F
100
AcDbEntity
  8
0
  6
Continuous
 62
     7
370
    15
100
AcDbLine
 10
106.5633729163
 20
118.2547205302
 30
0.0
 11
112.5633731547
 21
118.2547205302
 31
0.0
  0
LINE
  5
137
330
1F
100
AcDbEntity
  8
0
  6
Continuous
 62
     7
370
    15
100
AcDbLine
 10
106.5633729163
 20
118.2547205302
 30
0.0
 11
106.5633729163
 21
116.204720101
 31
0.0
  0
LINE
  5
138
330
1F
100
AcDbEntity
  8
0
  6
Continuous
 62
     7
370
    15
100
AcDbLine
 10
112.5633731547
 20
116.204720101
 30
0.0
 11
106.5633729163
 21
116.204720101
 31
0.0
  0
LINE
  5
139
330
1F
100
AcDbEntity
  8
0
  6
Continuous
 62
     7
370
    15
100
AcDbLine
 10
112.5633731547
 20
118.2547205302
 30
0.0
 11
112.5633731547
 21
116.204720101
 31
0.0
  0
LINE
  5
13A
330
1F
100
AcDbEntity
  8
0
  6
Continuous
 62
     7
370
    15
100
AcDbLine
 10
112.5633731547
 20
115.9047180029
 30
0.0
 11
106.5633729163
 21
115.9047180029
 31
0.0
  0
LINE
  5
13B
330
1F
100
AcDbEntity
  8
0
  6
Continuous
 62
     7
370
    15
100
AcDbLine
 10
106.5633729163
 20
115.9047180029
 30
0.0
 11
106.5633729163
 21
109.9047207448
 31
0.0
  0
LINE
  5
13C
330
1F
100
AcDbEntity
  8
0
  6
Continuous
 62
     7
370
    15
100
AcDbLine
 10
112.5633731547
 20
109.9047207448
 30
0.0
 11
106.5633729163
 21
109.9047207448
 31
0.0
  0
LINE
  5
13D
330
1F
100
AcDbEntity
  8
0
  6
Continuous
 62
     7
370
    15
100
AcDbLine
 10
112.5633731547
 20
115.9047180029
 30
0.0
 11
112.5633731547
 21
109.9047207448
 31
0.0
  0
LINE
  5
13E
330
1F
100
AcDbEntity
  8
0
  6
Continuous
 62
     7
370
    15
100
AcDbLine
 10
112.5633731547
 20
109.6047186467
 30
0.0
 11
106.5633729163
 21
109.6047186467
 31
0.0
  0
LINE
  5
13F
330
1F
100
AcDbEntity
  8
0
  6
Continuous
 62
     7
370
    15
100
AcDbLine
 10
106.5633729163
 20
109.6047186467
 30
0.0
 11
106.5633729163
 21
103.6047184082
 31
0.0
  0
LINE
  5
140
330
1F
100
AcDbEntity
  8
0
  6
Continuous
 62
     7
370
    15
100
AcDbLine
 10
112.5633731547
 20
103.6047184082
 30
0.0
 11
106.5633729163
 21
103.6047184082
 31
0.0
  0
LINE
  5
141
330
1F
100
AcDbEntity
  8
0
  6
Continuous
 62
     7
370
    15
100
AcDbLine
 10
112.5633731547
 20
109.6047186467
 30
0.0
 11
112.5633731547
 21
103.6047184082
 31
0.0
  0
LINE
  5
142
330
1F
100
AcDbEntity
  8
0
  6
Continuous
 62
     7
370
    15
100
AcDbLine
 10
112.5633731547
 20
103.3047192904
 30
0.0
 11
106.5633729163
 21
103.3047192904
 31
0.0
  0
LINE
  5
143
330
1F
100
AcDbEntity
  8
0
  6
Continuous
 62
     7
370
    15
100
AcDbLine
 10
106.5633729163
 20
103.3047192904
 30
0.0
 11
106.5633729163
 21
97.304719052
 31
0.0
  0
LINE
  5
144
330
1F
100
AcDbEntity
  8
0
  6
Continuous
 62
     7
370
    15
100
AcDbLine
 10
112.5633731547
 20
97.304719052
 30
0.0
 11
106.5633729163
 21
97.304719052
 31
0.0
  0
LINE
  5
145
330
1F
100
AcDbEntity
  8
0
  6
Continuous
 62
     7
370
    15
100
AcDbLine
 10
112.5633731547
 20
103.3047192904
 30
0.0
 11
112.5633731547
 21
97.304719052
 31
0.0
  0
LINE
  5
146
330
1F
100
AcDbEntity
  8
0
  6
Continuous
 62
     7
370
    15
100
AcDbLine
 10
112.5633731547
 20
97.0047199341
 30
0.0
 11
106.5633729163
 21
97.0047199341
 31
0.0
  0
LINE
  5
147
330
1F
100
AcDbEntity
  8
0
  6
Continuous
 62
     7
370
    15
100
AcDbLine
 10
106.5633729163
 20
97.0047199341
 30
0.0
 11
106.5633729163
 21
91.0047196957
 31
0.0
  0
LINE
  5
148
330
1F
100
AcDbEntity
  8
0
  6
Continuous
 62
     7
370
    15
100
AcDbLine
 10
112.5633731547
 20
91.0047196957
 30
0.0
 11
106.5633729163
 21
91.0047196957
 31
0.0
  0
LINE
  5
149
330
1F
100
AcDbEntity
  8
0
  6
Continuous
 62
     7
370
    15
100
AcDbLine
 10
112.5633731547
 20
97.0047199341
 30
0.0
 11
112.5633731547
 21
91.0047196957
 31
0.0
  0
LINE
  5
14A
330
1F
100
AcDbEntity
  8
0
  6
Continuous
 62
     7
370
    15
100
AcDbLine
 10
112.5633731547
 20
90.7047205779
 30
0.0
 11
106.5633729163
 21
90.7047205779
 31
0.0
  0
LINE
  5
14B
330
1F
100
AcDbEntity
  8
0
  6
Continuous
 62
     7
370
    15
100
AcDbLine
 10
106.5633729163
 20
90.7047205779
 30
0.0
 11
106.5633729163
 21
84.7047188493
 31
0.0
  0
LINE
  5
14C
330
1F
100
AcDbEntity
  8
0
  6
Continuous
 62
     7
370
    15
100
AcDbLine
 10
112.5633731547
 20
84.7047188493
 30
0.0
 11
106.5633729163
 21
84.7047188493
 31
0.0
  0
LINE
  5
14D
330
1F
100
AcDbEntity
  8
0
  6
Continuous
 62
     7
370
    15
100
AcDbLine
 10
112.5633731547
 20
90.7047205779
 30
0.0
 11
112.5633731547
 21
84.7047188493
 31
0.0
  0
LINE
  5
14E
330
1F
100
AcDbEntity
  8
0
  6
Continuous
 62
     7
370
    15
100
AcDbLine
 10
112.5633731547
 20
84.4047197315
 30
0.0
 11
106.5633729163
 21
84.4047197315
 31
0.0
  0
LINE
  5
14F
330
1F
100
AcDbEntity
  8
0
  6
Continuous
 62
     7
370
    15
100
AcDbLine
 10
106.5633729163
 20
84.4047197315
 30
0.0
 11
106.5633729163
 21
78.4047194931
 31
0.0
  0
LINE
  5
150
330
1F
100
AcDbEntity
  8
0
  6
Continuous
 62
     7
370
    15
100
AcDbLine
 10
112.5633731547
 20
78.4047194931
 30
0.0
 11
106.5633729163
 21
78.4047194931
 31
0.0
  0
LINE
  5
151
330
1F
100
AcDbEntity
  8
0
  6
Continuous
 62
     7
370
    15
100
AcDbLine
 10
112.5633731547
 20
84.4047197315
 30
0.0
 11
112.5633731547
 21
78.4047194931
 31
0.0
  0
LINE
  5
152
330
1F
100
AcDbEntity
  8
0
  6
Continuous
 62
     7
370
    15
100
AcDbLine
 10
112.5633731547
 20
78.1047188851
 30
0.0
 11
106.5633729163
 21
78.1047188851
 31
0.0
  0
LINE
  5
153
330
1F
100
AcDbEntity
  8
0
  6
Continuous
 62
     7
370
    15
100
AcDbLine
 10
106.5633729163
 20
78.1047188851
 30
0.0
 11
106.5633729163
 21
72.1047193917
 31
0.0
  0
LINE
  5
154
330
1F
100
AcDbEntity
  8
0
  6
Continuous
 62
     7
370
    15
100
AcDbLine
 10
112.5633731547
 20
72.1047193917
 30
0.0
 11
106.5633729163
 21
72.1047193917
 31
0.0
  0
LINE
  5
155
330
1F
100
AcDbEntity
  8
0
  6
Continuous
 62
     7
370
    15
100
AcDbLine
 10
112.5633731547
 20
78.1047188851
 30
0.0
 11
112.5633731547
 21
72.1047193917
 31
0.0
  0
LINE
  5
156
330
1F
100
AcDbEntity
  8
0
  6
Continuous
 62
     7
370
    15
100
AcDbLine
 10
112.5633731547
 20
71.8047195288
 30
0.0
 11
106.5633729163
 21
71.8047195288
 31
0.0
  0
LINE
  5
157
330
1F
100
AcDbEntity
  8
0
  6
Continuous
 62
     7
370
    15
100
AcDbLine
 10
106.5633729163
 20
71.8047195288
 30
0.0
 11
106.5633729163
 21
65.8047196629
 31
0.0
  0
LINE
  5
158
330
1F
100
AcDbEntity
  8
0
  6
Continuous
 62
     7
370
    15
100
AcDbLine
 10
112.5633731547
 20
65.8047196629
 30
0.0
 11
106.5633729163
 21
65.8047196629
 31
0.0
  0
LINE
  5
159
330
1F
100
AcDbEntity
  8
0
  6
Continuous
 62
     7
370
    15
100
AcDbLine
 10
112.5633731547
 20
71.8047195288
 30
0.0
 11
112.5633731547
 21
65.8047196629
 31
0.0
  0
LINE
  5
15A
330
1F
100
AcDbEntity
  8
0
  6
Continuous
 62
     7
370
    15
100
AcDbLine
 10
112.5633731547
 20
65.5047194275
 30
0.0
 11
106.5633729163
 21
65.5047194275
 31
0.0
  0
LINE
  5
15B
330
1F
100
AcDbEntity
  8
0
  6
Continuous
 62
     7
370
    15
100
AcDbLine
 10
106.5633729163
 20
65.5047194275
 30
0.0
 11
106.5633729163
 21
63.4547195571
 31
0.0
  0
LINE
  5
15C
330
1F
100
AcDbEntity
  8
0
  6
Continuous
 62
     7
370
    15
100
AcDbLine
 10
112.5633731547
 20
63.4547195571
 30
0.0
 11
106.5633729163
 21
63.4547195571
 31
0.0
  0
LINE
  5
15D
330
1F
100
AcDbEntity
  8
0
  6
Continuous
 62
     7
370
    15
100
AcDbLine
 10
112.5633731547
 20
65.5047194275
 30
0.0
 11
112.5633731547
 21
63.4547195571
 31
0.0
  0
LINE
  5
15E
330
1F
100
AcDbEntity
  8
0
  6
Continuous
 62
     7
370
    15
100
AcDbLine
 10
118.7633737984
 20
115.9047180029
 30
0.0
 11
112.76337356
 21
115.9047180029
 31
0.0
  0
LINE
  5
15F
330
1F
100
AcDbEntity
  8
0
  6
Continuous
 62
     7
370
    15
100
AcDbLine
 10
112.76337356
 20
115.9047180029
 30
0.0
 11
112.76337356
 21
109.9047207448
 31
0.0
  0
LINE
  5
160
330
1F
100
AcDbEntity
  8
0
  6
Continuous
 62
     7
370
    15
100
AcDbLine
 10
118.7633737984
 20
109.9047207448
 30
0.0
 11
112.76337356
 21
109.9047207448
 31
0.0
  0
LINE
  5
161
330
1F
100
AcDbEntity
  8
0
  6
Continuous
 62
     7
370
    15
100
AcDbLine
 10
118.7633737984
 20
115.9047180029
 30
0.0
 11
118.7633737984
 21
109.9047207448
 31
0.0
  0
LINE
  5
162
330
1F
100
AcDbEntity
  8
0
  6
Continuous
 62
     7
370
    15
100
AcDbLine
 10
118.7633737984
 20
109.6047186467
 30
0.0
 11
112.76337356
 21
109.6047186467
 31
0.0
  0
LINE
  5
163
330
1F
100
AcDbEntity
  8
0
  6
Continuous
 62
     7
370
    15
100
AcDbLine
 10
112.76337356
 20
109.6047186467
 30
0.0
 11
112.76337356
 21
103.6047184082
 31
0.0
  0
LINE
  5
164
330
1F
100
AcDbEntity
  8
0
  6
Continuous
 62
     7
370
    15
100
AcDbLine
 10
118.7633737984
 20
103.6047184082
 30
0.0
 11
112.76337356
 21
103.6047184082
 31
0.0
  0
LINE
  5
165
330
1F
100
AcDbEntity
  8
0
  6
Continuous
 62
     7
370
    15
100
AcDbLine
 10
118.7633737984
 20
109.6047186467
 30
0.0
 11
118.7633737984
 21
103.6047184082
 31
0.0
  0
LINE
  5
166
330
1F
100
AcDbEntity
  8
0
  6
Continuous
 62
     7
370
    15
100
AcDbLine
 10
118.7633737984
 20
103.3047192904
 30
0.0
 11
112.76337356
 21
103.3047192904
 31
0.0
  0
LINE
  5
167
330
1F
100
AcDbEntity
  8
0
  6
Continuous
 62
     7
370
    15
100
AcDbLine
 10
112.76337356
 20
103.3047192904
 30
0.0
 11
112.76337356
 21
97.304719052
 31
0.0
  0
LINE
  5
168
330
1F
100
AcDbEntity
  8
0
  6
Continuous
 62
     7
370
    15
100
AcDbLine
 10
118.7633737984
 20
97.304719052
 30
0.0
 11
112.76337356
 21
97.304719052
 31
0.0
  0
LINE
  5
169
330
1F
100
AcDbEntity
  8
0
  6
Continuous
 62
     7
370
    15
100
AcDbLine
 10
118.7633737984
 20
103.3047192904
 30
0.0
 11
118.7633737984
 21
97.304719052
 31
0.0
  0
LINE
  5
16A
330
1F
100
AcDbEntity
  8
0
  6
Continuous
 62
     7
370
    15
100
AcDbLine
 10
118.7633737984
 20
97.0047199341
 30
0.0
 11
112.76337356
 21
97.0047199341
 31
0.0
  0
LINE
  5
16B
330
1F
100
AcDbEntity
  8
0
  6
Continuous
 62
     7
370
    15
100
AcDbLine
 10
112.76337356
 20
97.0047199341
 30
0.0
 11
112.76337356
 21
91.0047196957
 31
0.0
  0
LINE
  5
16C
330
1F
100
AcDbEntity
  8
0
  6
Continuous
 62
     7
370
    15
100
AcDbLine
 10
118.7633737984
 20
91.0047196957
 30
0.0
 11
112.76337356
 21
91.0047196957
 31
0.0
  0
LINE
  5
16D
330
1F
100
AcDbEntity
  8
0
  6
Continuous
 62
     7
370
    15
100
AcDbLine
 10
118.7633737984
 20
97.0047199341
 30
0.0
 11
118.7633737984
 21
91.0047196957
 31
0.0
  0
LINE
  5
16E
330
1F
100
AcDbEntity
  8
0
  6
Continuous
 62
     7
370
    15
100
AcDbLine
 10
118.7633737984
 20
90.7047205779
 30
0.0
 11
112.76337356
 21
90.7047205779
 31
0.0
  0
LINE
  5
16F
330
1F
100
AcDbEntity
  8
0
  6
Continuous
 62
     7
370
    15
100
AcDbLine
 10
112.76337356
 20
90.7047205779
 30
0.0
 11
112.76337356
 21
84.7047188493
 31
0.0
  0
LINE
  5
170
330
1F
100
AcDbEntity
  8
0
  6
Continuous
 62
     7
370
    15
100
AcDbLine
 10
118.7633737984
 20
84.7047188493
 30
0.0
 11
112.76337356
 21
84.7047188493
 31
0.0
  0
LINE
  5
171
330
1F
100
AcDbEntity
  8
0
  6
Continuous
 62
     7
370
    15
100
AcDbLine
 10
118.7633737984
 20
90.7047205779
 30
0.0
 11
118.7633737984
 21
84.7047188493
 31
0.0
  0
LINE
  5
172
330
1F
100
AcDbEntity
  8
0
  6
Continuous
 62
     7
370
    15
100
AcDbLine
 10
118.7633737984
 20
84.4047197315
 30
0.0
 11
112.76337356
 21
84.4047197315
 31
0.0
  0
LINE
  5
173
330
1F
100
AcDbEntity
  8
0
  6
Continuous
 62
     7
370
    15
100
AcDbLine
 10
112.76337356
 20
84.4047197315
 30
0.0
 11
112.76337356
 21
78.4047194931
 31
0.0
  0
LINE
  5
174
330
1F
100
AcDbEntity
  8
0
  6
Continuous
 62
     7
370
    15
100
AcDbLine
 10
118.7633737984
 20
78.4047194931
 30
0.0
 11
112.76337356
 21
78.4047194931
 31
0.0
  0
LINE
  5
175
330
1F
100
AcDbEntity
  8
0
  6
Continuous
 62
     7
370
    15
100
AcDbLine
 10
118.7633737984
 20
84.4047197315
 30
0.0
 11
118.7633737984
 21
78.4047194931
 31
0.0
  0
LINE
  5
176
330
1F
100
AcDbEntity
  8
0
  6
Continuous
 62
     7
370
    15
100
AcDbLine
 10
118.7633737984
 20
78.1047188851
 30
0.0
 11
112.76337356
 21
78.1047188851
 31
0.0
  0
LINE
  5
177
330
1F
100
AcDbEntity
  8
0
  6
Continuous
 62
     7
370
    15
100
AcDbLine
 10
112.76337356
 20
78.1047188851
 30
0.0
 11
112.76337356
 21
72.1047193917
 31
0.0
  0
LINE
  5
178
330
1F
100
AcDbEntity
  8
0
  6
Continuous
 62
     7
370
    15
100
AcDbLine
 10
118.7633737984
 20
72.1047193917
 30
0.0
 11
112.76337356
 21
72.1047193917
 31
0.0
  0
LINE
  5
179
330
1F
100
AcDbEntity
  8
0
  6
Continuous
 62
     7
370
    15
100
AcDbLine
 10
118.7633737984
 20
78.1047188851
 30
0.0
 11
118.7633737984
 21
72.1047193917
 31
0.0
  0
LINE
  5
17A
330
1F
100
AcDbEntity
  8
0
  6
Continuous
 62
     7
370
    15
100
AcDbLine
 10
118.7633737984
 20
71.8047195288
 30
0.0
 11
112.76337356
 21
71.8047195288
 31
0.0
  0
LINE
  5
17B
330
1F
100
AcDbEntity
  8
0
  6
Continuous
 62
     7
370
    15
100
AcDbLine
 10
112.76337356
 20
71.8047195288
 30
0.0
 11
112.76337356
 21
65.8047196629
 31
0.0
  0
LINE
  5
17C
330
1F
100
AcDbEntity
  8
0
  6
Continuous
 62
     7
370
    15
100
AcDbLine
 10
118.7633737984
 20
65.8047196629
 30
0.0
 11
112.76337356
 21
65.8047196629
 31
0.0
  0
LINE
  5
17D
330
1F
100
AcDbEntity
  8
0
  6
Continuous
 62
     7
370
    15
100
AcDbLine
 10
118.7633737984
 20
71.8047195288
 30
0.0
 11
118.7633737984
 21
65.8047196629
 31
0.0
  0
LINE
  5
17E
330
1F
100
AcDbEntity
  8
0
  6
Continuous
 62
     7
370
    15
100
AcDbLine
 10
118.7633737984
 20
65.5047194275
 30
0.0
 11
112.76337356
 21
65.5047194275
 31
0.0
  0
LINE
  5
17F
330
1F
100
AcDbEntity
  8
0
  6
Continuous
 62
     7
370
    15
100
AcDbLine
 10
112.76337356
 20
65.5047194275
 30
0.0
 11
112.76337356
 21
63.4547195571
 31
0.0
  0
LINE
  5
180
330
1F
100
AcDbEntity
  8
0
  6
Continuous
 62
     7
370
    15
100
AcDbLine
 10
118.7633737984
 20
63.4547195571
 30
0.0
 11
112.76337356
 21
63.4547195571
 31
0.0
  0
LINE
  5
181
330
1F
100
AcDbEntity
  8
0
  6
Continuous
 62
     7
370
    15
100
AcDbLine
 10
118.7633737984
 20
65.5047194275
 30
0.0
 11
118.7633737984
 21
63.4547195571
 31
0.0
  0
LINE
  5
182
330
1F
100
AcDbEntity
  8
0
  6
Continuous
 62
     7
370
    15
100
AcDbLine
 10
112.76337356
 20
118.2547205302
 30
0.0
 11
112.76337356
 21
116.204720101
 31
0.0
  0
LINE
  5
183
330
1F
100
AcDbEntity
  8
0
  6
Continuous
 62
     7
370
    15
100
AcDbLine
 10
118.7633737984
 20
116.204720101
 30
0.0
 11
112.76337356
 21
116.204720101
 31
0.0
  0
LINE
  5
184
330
1F
100
AcDbEntity
  8
0
  6
Continuous
 62
     7
370
    15
100
AcDbLine
 10
118.7633737984
 20
118.2547205302
 30
0.0
 11
118.7633737984
 21
116.204720101
 31
0.0
  0
LINE
  5
185
330
1F
100
AcDbEntity
  8
0
  6
Continuous
 62
     7
370
    15
100
AcDbLine
 10
112.76337356
 20
118.2547205302
 30
0.0
 11
118.7633737984
 21
118.2547205302
 31
0.0
  0
LINE
  5
186
330
1F
100
AcDbEntity
  8
0
  6
Continuous
 62
     7
370
    15
100
AcDbLine
 10
118.9633712235
 20
118.2547205302
 30
0.0
 11
118.9633712235
 21
116.204720101
 31
0.0
  0
LINE
  5
187
330
1F
100
AcDbEntity
  8
0
  6
Continuous
 62
     7
370
    15
100
AcDbLine
 10
124.9633714619
 20
116.204720101
 30
0.0
 11
118.9633712235
 21
116.204720101
 31
0.0
  0
LINE
  5
188
330
1F
100
AcDbEntity
  8
0
  6
Continuous
 62
     7
370
    15
100
AcDbLine
 10
124.9633714619
 20
118.2547205302
 30
0.0
 11
124.9633714619
 21
116.204720101
 31
0.0
  0
LINE
  5
189
330
1F
100
AcDbEntity
  8
0
  6
Continuous
 62
     7
370
    15
100
AcDbLine
 10
118.9633712235
 20
118.2547205302
 30
0.0
 11
124.9633714619
 21
118.2547205302
 31
0.0
  0
LINE
  5
18A
330
1F
100
AcDbEntity
  8
0
  6
Continuous
 62
     7
370
    15
100
AcDbLine
 10
124.9633714619
 20
115.9047180029
 30
0.0
 11
118.9633712235
 21
115.9047180029
 31
0.0
  0
LINE
  5
18B
330
1F
100
AcDbEntity
  8
0
  6
Continuous
 62
     7
370
    15
100
AcDbLine
 10
118.9633712235
 20
115.9047180029
 30
0.0
 11
118.9633712235
 21
109.9047207448
 31
0.0
  0
LINE
  5
18C
330
1F
100
AcDbEntity
  8
0
  6
Continuous
 62
     7
370
    15
100
AcDbLine
 10
124.9633714619
 20
109.9047207448
 30
0.0
 11
118.9633712235
 21
109.9047207448
 31
0.0
  0
LINE
  5
18D
330
1F
100
AcDbEntity
  8
0
  6
Continuous
 62
     7
370
    15
100
AcDbLine
 10
124.9633714619
 20
115.9047180029
 30
0.0
 11
124.9633714619
 21
109.9047207448
 31
0.0
  0
LINE
  5
18E
330
1F
100
AcDbEntity
  8
0
  6
Continuous
 62
     7
370
    15
100
AcDbLine
 10
124.9633714619
 20
109.6047186467
 30
0.0
 11
118.9633712235
 21
109.6047186467
 31
0.0
  0
LINE
  5
18F
330
1F
100
AcDbEntity
  8
0
  6
Continuous
 62
     7
370
    15
100
AcDbLine
 10
118.9633712235
 20
109.6047186467
 30
0.0
 11
118.9633712235
 21
103.6047184082
 31
0.0
  0
LINE
  5
190
330
1F
100
AcDbEntity
  8
0
  6
Continuous
 62
     7
370
    15
100
AcDbLine
 10
124.9633714619
 20
103.6047184082
 30
0.0
 11
118.9633712235
 21
103.6047184082
 31
0.0
  0
LINE
  5
191
330
1F
100
AcDbEntity
  8
0
  6
Continuous
 62
     7
370
    15
100
AcDbLine
 10
124.9633714619
 20
109.6047186467
 30
0.0
 11
124.9633714619
 21
103.6047184082
 31
0.0
  0
LINE
  5
192
330
1F
100
AcDbEntity
  8
0
  6
Continuous
 62
     7
370
    15
100
AcDbLine
 10
124.9633714619
 20
103.3047192904
 30
0.0
 11
118.9633712235
 21
103.3047192904
 31
0.0
  0
LINE
  5
193
330
1F
100
AcDbEntity
  8
0
  6
Continuous
 62
     7
370
    15
100
AcDbLine
 10
118.9633712235
 20
103.3047192904
 30
0.0
 11
118.9633712235
 21
97.304719052
 31
0.0
  0
LINE
  5
194
330
1F
100
AcDbEntity
  8
0
  6
Continuous
 62
     7
370
    15
100
AcDbLine
 10
124.9633714619
 20
97.304719052
 30
0.0
 11
118.9633712235
 21
97.304719052
 31
0.0
  0
LINE
  5
195
330
1F
100
AcDbEntity
  8
0
  6
Continuous
 62
     7
370
    15
100
AcDbLine
 10
124.9633714619
 20
103.3047192904
 30
0.0
 11
124.9633714619
 21
97.304719052
 31
0.0
  0
LINE
  5
196
330
1F
100
AcDbEntity
  8
0
  6
Continuous
 62
     7
370
    15
100
AcDbLine
 10
118.9633712235
 20
71.8047195288
 30
0.0
 11
118.9633712235
 21
65.8047196629
 31
0.0
  0
LINE
  5
197
330
1F
100
AcDbEntity
  8
0
  6
Continuous
 62
     7
370
    15
100
AcDbLine
 10
124.9633714619
 20
65.8047196629
 30
0.0
 11
118.9633712235
 21
65.8047196629
 31
0.0
  0
LINE
  5
198
330
1F
100
AcDbEntity
  8
0
  6
Continuous
 62
     7
370
    15
100
AcDbLine
 10
124.9633714619
 20
71.8047195288
 30
0.0
 11
124.9633714619
 21
65.8047196629
 31
0.0
  0
LINE
  5
199
330
1F
100
AcDbEntity
  8
0
  6
Continuous
 62
     7
370
    15
100
AcDbLine
 10
124.9633714619
 20
71.8047195288
 30
0.0
 11
118.9633712235
 21
71.8047195288
 31
0.0
  0
LINE
  5
19A
330
1F
100
AcDbEntity
  8
0
  6
Continuous
 62
     7
370
    15
100
AcDbLine
 10
118.9633712235
 20
78.1047188851
 30
0.0
 11
118.9633712235
 21
72.1047193917
 31
0.0
  0
LINE
  5
19B
330
1F
100
AcDbEntity
  8
0
  6
Continuous
 62
     7
370
    15
100
AcDbLine
 10
124.9633714619
 20
72.1047193917
 30
0.0
 11
118.9633712235
 21
72.1047193917
 31
0.0
  0
LINE
  5
19C
330
1F
100
AcDbEntity
  8
0
  6
Continuous
 62
     7
370
    15
100
AcDbLine
 10
124.9633714619
 20
78.1047188851
 30
0.0
 11
124.9633714619
 21
72.1047193917
 31
0.0
  0
LINE
  5
19D
330
1F
100
AcDbEntity
  8
0
  6
Continuous
 62
     7
370
    15
100
AcDbLine
 10
124.9633714619
 20
78.1047188851
 30
0.0
 11
118.9633712235
 21
78.1047188851
 31
0.0
  0
LINE
  5
19E
330
1F
100
AcDbEntity
  8
0
  6
Continuous
 62
     7
370
    15
100
AcDbLine
 10
118.9633712235
 20
84.4047197315
 30
0.0
 11
118.9633712235
 21
78.4047194931
 31
0.0
  0
LINE
  5
19F
330
1F
100
AcDbEntity
  8
0
  6
Continuous
 62
     7
370
    15
100
AcDbLine
 10
124.9633714619
 20
78.4047194931
 30
0.0
 11
118.9633712235
 21
78.4047194931
 31
0.0
  0
LINE
  5
1A0
330
1F
100
AcDbEntity
  8
0
  6
Continuous
 62
     7
370
    15
100
AcDbLine
 10
124.9633714619
 20
84.4047197315
 30
0.0
 11
124.9633714619
 21
78.4047194931
 31
0.0
  0
LINE
  5
1A1
330
1F
100
AcDbEntity
  8
0
  6
Continuous
 62
     7
370
    15
100
AcDbLine
 10
124.9633714619
 20
84.4047197315
 30
0.0
 11
118.9633712235
 21
84.4047197315
 31
0.0
  0
LINE
  5
1A2
330
1F
100
AcDbEntity
  8
0
  6
Continuous
 62
     7
370
    15
100
AcDbLine
 10
118.9633712235
 20
90.7047205779
 30
0.0
 11
118.9633712235
 21
84.7047188493
 31
0.0
  0
LINE
  5
1A3
330
1F
100
AcDbEntity
  8
0
  6
Continuous
 62
     7
370
    15
100
AcDbLine
 10
124.9633714619
 20
84.7047188493
 30
0.0
 11
118.9633712235
 21
84.7047188493
 31
0.0
  0
LINE
  5
1A4
330
1F
100
AcDbEntity
  8
0
  6
Continuous
 62
     7
370
    15
100
AcDbLine
 10
124.9633714619
 20
90.7047205779
 30
0.0
 11
124.9633714619
 21
84.7047188493
 31
0.0
  0
LINE
  5
1A5
330
1F
100
AcDbEntity
  8
0
  6
Continuous
 62
     7
370
    15
100
AcDbLine
 10
124.9633714619
 20
90.7047205779
 30
0.0
 11
118.9633712235
 21
90.7047205779
 31
0.0
  0
LINE
  5
1A6
330
1F
100
AcDbEntity
  8
0
  6
Continuous
 62
     7
370
    15
100
AcDbLine
 10
124.9633714619
 20
97.0047199341
 30
0.0
 11
118.9633712235
 21
97.0047199341
 31
0.0
  0
LINE
  5
1A7
330
1F
100
AcDbEntity
  8
0
  6
Continuous
 62
     7
370
    15
100
AcDbLine
 10
118.9633712235
 20
97.0047199341
 30
0.0
 11
118.9633712235
 21
91.0047196957
 31
0.0
  0
LINE
  5
1A8
330
1F
100
AcDbEntity
  8
0
  6
Continuous
 62
     7
370
    15
100
AcDbLine
 10
124.9633714619
 20
91.0047196957
 30
0.0
 11
118.9633712235
 21
91.0047196957
 31
0.0
  0
LINE
  5
1A9
330
1F
100
AcDbEntity
  8
0
  6
Continuous
 62
     7
370
    15
100
AcDbLine
 10
124.9633714619
 20
97.0047199341
 30
0.0
 11
124.9633714619
 21
91.0047196957
 31
0.0
  0
LINE
  5
1AA
330
1F
100
AcDbEntity
  8
0
  6
Continuous
 62
     7
370
    15
100
AcDbLine
 10
124.9633714619
 20
65.5047194275
 30
0.0
 11
118.9633712235
 21
65.5047194275
 31
0.0
  0
LINE
  5
1AB
330
1F
100
AcDbEntity
  8
0
  6
Continuous
 62
     7
370
    15
100
AcDbLine
 10
118.9633712235
 20
65.5047194275
 30
0.0
 11
118.9633712235
 21
63.4547195571
 31
0.0
  0
LINE
  5
1AC
330
1F
100
AcDbEntity
  8
0
  6
Continuous
 62
     7
370
    15
100
AcDbLine
 10
124.9633714619
 20
63.4547195571
 30
0.0
 11
118.9633712235
 21
63.4547195571
 31
0.0
  0
LINE
  5
1AD
330
1F
100
AcDbEntity
  8
0
  6
Continuous
 62
     7
370
    15
100
AcDbLine
 10
124.9633714619
 20
65.5047194275
 30
0.0
 11
124.9633714619
 21
63.4547195571
 31
0.0
  0
LINE
  5
1AE
330
1F
100
AcDbEntity
  8
0
  6
Continuous
 62
     7
370
    15
100
AcDbLine
 10
125.1633718672
 20
118.2547205302
 30
0.0
 11
125.1633718672
 21
116.204720101
 31
0.0
  0
LINE
  5
1AF
330
1F
100
AcDbEntity
  8
0
  6
Continuous
 62
     7
370
    15
100
AcDbLine
 10
131.1633721056
 20
116.204720101
 30
0.0
 11
125.1633718672
 21
116.204720101
 31
0.0
  0
LINE
  5
1B0
330
1F
100
AcDbEntity
  8
0
  6
Continuous
 62
     7
370
    15
100
AcDbLine
 10
131.1633721056
 20
118.2547205302
 30
0.0
 11
131.1633721056
 21
116.204720101
 31
0.0
  0
LINE
  5
1B1
330
1F
100
AcDbEntity
  8
0
  6
Continuous
 62
     7
370
    15
100
AcDbLine
 10
125.1633718672
 20
118.2547205302
 30
0.0
 11
131.1633721056
 21
118.2547205302
 31
0.0
  0
LINE
  5
1B2
330
1F
100
AcDbEntity
  8
0
  6
Continuous
 62
     7
370
    15
100
AcDbLine
 10
131.1633721056
 20
115.9047180029
 30
0.0
 11
125.1633718672
 21
115.9047180029
 31
0.0
  0
LINE
  5
1B3
330
1F
100
AcDbEntity
  8
0
  6
Continuous
 62
     7
370
    15
100
AcDbLine
 10
125.1633718672
 20
115.9047180029
 30
0.0
 11
125.1633718672
 21
109.9047207448
 31
0.0
  0
LINE
  5
1B4
330
1F
100
AcDbEntity
  8
0
  6
Continuous
 62
     7
370
    15
100
AcDbLine
 10
131.1633721056
 20
109.9047207448
 30
0.0
 11
125.1633718672
 21
109.9047207448
 31
0.0
  0
LINE
  5
1B5
330
1F
100
AcDbEntity
  8
0
  6
Continuous
 62
     7
370
    15
100
AcDbLine
 10
131.1633721056
 20
115.9047180029
 30
0.0
 11
131.1633721056
 21
109.9047207448
 31
0.0
  0
LINE
  5
1B6
330
1F
100
AcDbEntity
  8
0
  6
Continuous
 62
     7
370
    15
100
AcDbLine
 10
131.1633721056
 20
109.6047186467
 30
0.0
 11
125.1633718672
 21
109.6047186467
 31
0.0
  0
LINE
  5
1B7
330
1F
100
AcDbEntity
  8
0
  6
Continuous
 62
     7
370
    15
100
AcDbLine
 10
125.1633718672
 20
109.6047186467
 30
0.0
 11
125.1633718672
 21
103.6047184082
 31
0.0
  0
LINE
  5
1B8
330
1F
100
AcDbEntity
  8
0
  6
Continuous
 62
     7
370
    15
100
AcDbLine
 10
131.1633721056
 20
103.6047184082
 30
0.0
 11
125.1633718672
 21
103.6047184082
 31
0.0
  0
LINE
  5
1B9
330
1F
100
AcDbEntity
  8
0
  6
Continuous
 62
     7
370
    15
100
AcDbLine
 10
131.1633721056
 20
109.6047186467
 30
0.0
 11
131.1633721056
 21
103.6047184082
 31
0.0
  0
LINE
  5
1BA
330
1F
100
AcDbEntity
  8
0
  6
Continuous
 62
     7
370
    15
100
AcDbLine
 10
131.1633721056
 20
103.3047192904
 30
0.0
 11
125.1633718672
 21
103.3047192904
 31
0.0
  0
LINE
  5
1BB
330
1F
100
AcDbEntity
  8
0
  6
Continuous
 62
     7
370
    15
100
AcDbLine
 10
125.1633718672
 20
103.3047192904
 30
0.0
 11
125.1633718672
 21
97.304719052
 31
0.0
  0
LINE
  5
1BC
330
1F
100
AcDbEntity
  8
0
  6
Continuous
 62
     7
370
    15
100
AcDbLine
 10
131.1633721056
 20
97.304719052
 30
0.0
 11
125.1633718672
 21
97.304719052
 31
0.0
  0
LINE
  5
1BD
330
1F
100
AcDbEntity
  8
0
  6
Continuous
 62
     7
370
    15
100
AcDbLine
 10
131.1633721056
 20
103.3047192904
 30
0.0
 11
131.1633721056
 21
97.304719052
 31
0.0
  0
LINE
  5
1BE
330
1F
100
AcDbEntity
  8
0
  6
Continuous
 62
     7
370
    15
100
AcDbLine
 10
125.1633718672
 20
71.8047195288
 30
0.0
 11
125.1633718672
 21
65.8047196629
 31
0.0
  0
LINE
  5
1BF
330
1F
100
AcDbEntity
  8
0
  6
Continuous
 62
     7
370
    15
100
AcDbLine
 10
131.1633721056
 20
65.8047196629
 30
0.0
 11
125.1633718672
 21
65.8047196629
 31
0.0
  0
LINE
  5
1C0
330
1F
100
AcDbEntity
  8
0
  6
Continuous
 62
     7
370
    15
100
AcDbLine
 10
131.1633721056
 20
71.8047195288
 30
0.0
 11
131.1633721056
 21
65.8047196629
 31
0.0
  0
LINE
  5
1C1
330
1F
100
AcDbEntity
  8
0
  6
Continuous
 62
     7
370
    15
100
AcDbLine
 10
131.1633721056
 20
71.8047195288
 30
0.0
 11
125.1633718672
 21
71.8047195288
 31
0.0
  0
LINE
  5
1C2
330
1F
100
AcDbEntity
  8
0
  6
Continuous
 62
     7
370
    15
100
AcDbLine
 10
125.1633718672
 20
78.1047188851
 30
0.0
 11
125.1633718672
 21
72.1047193917
 31
0.0
  0
LINE
  5
1C3
330
1F
100
AcDbEntity
  8
0
  6
Continuous
 62
     7
370
    15
100
AcDbLine
 10
131.1633721056
 20
72.1047193917
 30
0.0
 11
125.1633718672
 21
72.1047193917
 31
0.0
  0
LINE
  5
1C4
330
1F
100
AcDbEntity
  8
0
  6
Continuous
 62
     7
370
    15
100
AcDbLine
 10
131.1633721056
 20
78.1047188851
 30
0.0
 11
131.1633721056
 21
72.1047193917
 31
0.0
  0
LINE
  5
1C5
330
1F
100
AcDbEntity
  8
0
  6
Continuous
 62
     7
370
    15
100
AcDbLine
 10
131.1633721056
 20
78.1047188851
 30
0.0
 11
125.1633718672
 21
78.1047188851
 31
0.0
  0
LINE
  5
1C6
330
1F
100
AcDbEntity
  8
0
  6
Continuous
 62
     7
370
    15
100
AcDbLine
 10
125.1633718672
 20
84.4047197315
 30
0.0
 11
125.1633718672
 21
78.4047194931
 31
0.0
  0
LINE
  5
1C7
330
1F
100
AcDbEntity
  8
0
  6
Continuous
 62
     7
370
    15
100
AcDbLine
 10
131.1633721056
 20
78.4047194931
 30
0.0
 11
125.1633718672
 21
78.4047194931
 31
0.0
  0
LINE
  5
1C8
330
1F
100
AcDbEntity
  8
0
  6
Continuous
 62
     7
370
    15
100
AcDbLine
 10
131.1633721056
 20
84.4047197315
 30
0.0
 11
131.1633721056
 21
78.4047194931
 31
0.0
  0
LINE
  5
1C9
330
1F
100
AcDbEntity
  8
0
  6
Continuous
 62
     7
370
    15
100
AcDbLine
 10
131.1633721056
 20
84.4047197315
 30
0.0
 11
125.1633718672
 21
84.4047197315
 31
0.0
  0
LINE
  5
1CA
330
1F
100
AcDbEntity
  8
0
  6
Continuous
 62
     7
370
    15
100
AcDbLine
 10
125.1633718672
 20
90.7047205779
 30
0.0
 11
125.1633718672
 21
84.7047188493
 31
0.0
  0
LINE
  5
1CB
330
1F
100
AcDbEntity
  8
0
  6
Continuous
 62
     7
370
    15
100
AcDbLine
 10
131.1633721056
 20
84.7047188493
 30
0.0
 11
125.1633718672
 21
84.7047188493
 31
0.0
  0
LINE
  5
1CC
330
1F
100
AcDbEntity
  8
0
  6
Continuous
 62
     7
370
    15
100
AcDbLine
 10
131.1633721056
 20
90.7047205779
 30
0.0
 11
131.1633721056
 21
84.7047188493
 31
0.0
  0
LINE
  5
1CD
330
1F
100
AcDbEntity
  8
0
  6
Continuous
 62
     7
370
    15
100
AcDbLine
 10
131.1633721056
 20
90.7047205779
 30
0.0
 11
125.1633718672
 21
90.7047205779
 31
0.0
  0
LINE
  5
1CE
330
1F
100
AcDbEntity
  8
0
  6
Continuous
 62
     7
370
    15
100
AcDbLine
 10
131.1633721056
 20
97.0047199341
 30
0.0
 11
125.1633718672
 21
97.0047199341
 31
0.0
  0
LINE
  5
1CF
330
1F
100
AcDbEntity
  8
0
  6
Continuous
 62
     7
370
    15
100
AcDbLine
 10
125.1633718672
 20
97.0047199341
 30
0.0
 11
125.1633718672
 21
91.0047196957
 31
0.0
  0
LINE
  5
1D0
330
1F
100
AcDbEntity
  8
0
  6
Continuous
 62
     7
370
    15
100
AcDbLine
 10
131.1633721056
 20
91.0047196957
 30
0.0
 11
125.1633718672
 21
91.0047196957
 31
0.0
  0
LINE
  5
1D1
330
1F
100
AcDbEntity
  8
0
  6
Continuous
 62
     7
370
    15
100
AcDbLine
 10
131.1633721056
 20
97.0047199341
 30
0.0
 11
131.1633721056
 21
91.0047196957
 31
0.0
  0
LINE
  5
1D2
330
1F
100
AcDbEntity
  8
0
  6
Continuous
 62
     7
370
    15
100
AcDbLine
 10
131.1633721056
 20
65.5047194275
 30
0.0
 11
125.1633718672
 21
65.5047194275
 31
0.0
  0
LINE
  5
1D3
330
1F
100
AcDbEntity
  8
0
  6
Continuous
 62
     7
370
    15
100
AcDbLine
 10
125.1633718672
 20
65.5047194275
 30
0.0
 11
125.1633718672
 21
63.4547195571
 31
0.0
  0
LINE
  5
1D4
330
1F
100
AcDbEntity
  8
0
  6
Continuous
 62
     7
370
    15
100
AcDbLine
 10
131.1633721056
 20
63.4547195571
 30
0.0
 11
125.1633718672
 21
63.4547195571
 31
0.0
  0
LINE
  5
1D5
330
1F
100
AcDbEntity
  8
0
  6
Continuous
 62
     7
370
    15
100
AcDbLine
 10
131.1633721056
 20
65.5047194275
 30
0.0
 11
131.1633721056
 21
63.4547195571
 31
0.0
  0
LINE
  5
1D6
330
1F
100
AcDbEntity
  8
0
  6
Continuous
 62
     7
370
    15
100
AcDbLine
 10
140.0633737507
 20
65.8047196629
 30
0.0
 11
137.5633701745
 21
65.8047196629
 31
0.0
  0
LINE
  5
1D7
330
1F
100
AcDbEntity
  8
0
  6
Continuous
 62
     7
370
    15
100
AcDbLine
 10
140.0633737507
 20
71.8047195288
 30
0.0
 11
140.0633737507
 21
65.8047196629
 31
0.0
  0
LINE
  5
1D8
330
1F
100
AcDbEntity
  8
0
  6
Continuous
 62
     7
370
    15
100
AcDbLine
 10
140.0633737507
 20
71.8047195288
 30
0.0
 11
137.5633701745
 21
71.8047195288
 31
0.0
  0
LINE
  5
1D9
330
1F
100
AcDbEntity
  8
0
  6
Continuous
 62
     7
370
    15
100
AcDbLine
 10
137.5633701745
 20
71.8047195288
 30
0.0
 11
137.5633701745
 21
65.8047196629
 31
0.0
  0
LINE
  5
1DA
330
1F
100
AcDbEntity
  8
0
  6
Continuous
 62
     7
370
    15
100
AcDbLine
 10
140.0633737507
 20
72.1047193917
 30
0.0
 11
137.5633701745
 21
72.1047193917
 31
0.0
  0
LINE
  5
1DB
330
1F
100
AcDbEntity
  8
0
  6
Continuous
 62
     7
370
    15
100
AcDbLine
 10
140.0633737507
 20
78.1047188851
 30
0.0
 11
140.0633737507
 21
72.1047193917
 31
0.0
  0
LINE
  5
1DC
330
1F
100
AcDbEntity
  8
0
  6
Continuous
 62
     7
370
    15
100
AcDbLine
 10
140.0633737507
 20
78.1047188851
 30
0.0
 11
137.5633701745
 21
78.1047188851
 31
0.0
  0
LINE
  5
1DD
330
1F
100
AcDbEntity
  8
0
  6
Continuous
 62
     7
370
    15
100
AcDbLine
 10
137.5633701745
 20
78.1047188851
 30
0.0
 11
137.5633701745
 21
72.1047193917
 31
0.0
  0
LINE
  5
1DE
330
1F
100
AcDbEntity
  8
0
  6
Continuous
 62
     7
370
    15
100
AcDbLine
 10
140.0633737507
 20
78.4047194931
 30
0.0
 11
137.5633701745
 21
78.4047194931
 31
0.0
  0
LINE
  5
1DF
330
1F
100
AcDbEntity
  8
0
  6
Continuous
 62
     7
370
    15
100
AcDbLine
 10
140.0633737507
 20
84.4047197315
 30
0.0
 11
140.0633737507
 21
78.4047194931
 31
0.0
  0
LINE
  5
1E0
330
1F
100
AcDbEntity
  8
0
  6
Continuous
 62
     7
370
    15
100
AcDbLine
 10
140.0633737507
 20
84.4047197315
 30
0.0
 11
137.5633701745
 21
84.4047197315
 31
0.0
  0
LINE
  5
1E1
330
1F
100
AcDbEntity
  8
0
  6
Continuous
 62
     7
370
    15
100
AcDbLine
 10
137.5633701745
 20
84.4047197315
 30
0.0
 11
137.5633701745
 21
78.4047194931
 31
0.0
  0
LINE
  5
1E2
330
1F
100
AcDbEntity
  8
0
  6
Continuous
 62
     7
370
    15
100
AcDbLine
 10
140.0633737507
 20
84.7047188493
 30
0.0
 11
137.5633701745
 21
84.7047188493
 31
0.0
  0
LINE
  5
1E3
330
1F
100
AcDbEntity
  8
0
  6
Continuous
 62
     7
370
    15
100
AcDbLine
 10
140.0633737507
 20
90.7047205779
 30
0.0
 11
140.0633737507
 21
84.7047188493
 31
0.0
  0
LINE
  5
1E4
330
1F
100
AcDbEntity
  8
0
  6
Continuous
 62
     7
370
    15
100
AcDbLine
 10
140.0633737507
 20
90.7047205779
 30
0.0
 11
137.5633701745
 21
90.7047205779
 31
0.0
  0
LINE
  5
1E5
330
1F
100
AcDbEntity
  8
0
  6
Continuous
 62
     7
370
    15
100
AcDbLine
 10
137.5633701745
 20
90.7047205779
 30
0.0
 11
137.5633701745
 21
84.7047188493
 31
0.0
  0
LINE
  5
1E6
330
1F
100
AcDbEntity
  8
0
  6
Continuous
 62
     7
370
    15
100
AcDbLine
 10
140.0633737507
 20
97.0047199341
 30
0.0
 11
140.0633737507
 21
91.0047196957
 31
0.0
  0
LINE
  5
1E7
330
1F
100
AcDbEntity
  8
0
  6
Continuous
 62
     7
370
    15
100
AcDbLine
 10
140.0633737507
 20
97.0047199341
 30
0.0
 11
137.5633701745
 21
97.0047199341
 31
0.0
  0
LINE
  5
1E8
330
1F
100
AcDbEntity
  8
0
  6
Continuous
 62
     7
370
    15
100
AcDbLine
 10
137.5633701745
 20
97.0047199341
 30
0.0
 11
137.5633701745
 21
91.0047196957
 31
0.0
  0
LINE
  5
1E9
330
1F
100
AcDbEntity
  8
0
  6
Continuous
 62
     7
370
    15
100
AcDbLine
 10
140.0633737507
 20
91.0047196957
 30
0.0
 11
137.5633701745
 21
91.0047196957
 31
0.0
  0
LINE
  5
1EA
330
1F
100
AcDbEntity
  8
0
  6
Continuous
 62
     7
370
    15
100
AcDbLine
 10
140.0633737507
 20
103.3047192904
 30
0.0
 11
140.0633737507
 21
97.304719052
 31
0.0
  0
LINE
  5
1EB
330
1F
100
AcDbEntity
  8
0
  6
Continuous
 62
     7
370
    15
100
AcDbLine
 10
140.0633737507
 20
103.3047192904
 30
0.0
 11
137.5633701745
 21
103.3047192904
 31
0.0
  0
LINE
  5
1EC
330
1F
100
AcDbEntity
  8
0
  6
Continuous
 62
     7
370
    15
100
AcDbLine
 10
137.5633701745
 20
103.3047192904
 30
0.0
 11
137.5633701745
 21
97.304719052
 31
0.0
  0
LINE
  5
1ED
330
1F
100
AcDbEntity
  8
0
  6
Continuous
 62
     7
370
    15
100
AcDbLine
 10
140.0633737507
 20
97.304719052
 30
0.0
 11
137.5633701745
 21
97.304719052
 31
0.0
  0
LINE
  5
1EE
330
1F
100
AcDbEntity
  8
0
  6
Continuous
 62
     7
370
    15
100
AcDbLine
 10
140.0633737507
 20
109.6047186467
 30
0.0
 11
140.0633737507
 21
103.6047184082
 31
0.0
  0
LINE
  5
1EF
330
1F
100
AcDbEntity
  8
0
  6
Continuous
 62
     7
370
    15
100
AcDbLine
 10
140.0633737507
 20
109.6047186467
 30
0.0
 11
137.5633701745
 21
109.6047186467
 31
0.0
  0
LINE
  5
1F0
330
1F
100
AcDbEntity
  8
0
  6
Continuous
 62
     7
370
    15
100
AcDbLine
 10
137.5633701745
 20
109.6047186467
 30
0.0
 11
137.5633701745
 21
103.6047184082
 31
0.0
  0
LINE
  5
1F1
330
1F
100
AcDbEntity
  8
0
  6
Continuous
 62
     7
370
    15
100
AcDbLine
 10
140.0633737507
 20
103.6047184082
 30
0.0
 11
137.5633701745
 21
103.6047184082
 31
0.0
  0
LINE
  5
1F2
330
1F
100
AcDbEntity
  8
0
  6
Continuous
 62
     7
370
    15
100
AcDbLine
 10
140.0633737507
 20
115.9047180029
 30
0.0
 11
140.0633737507
 21
109.9047207448
 31
0.0
  0
LINE
  5
1F3
330
1F
100
AcDbEntity
  8
0
  6
Continuous
 62
     7
370
    15
100
AcDbLine
 10
140.0633737507
 20
115.9047180029
 30
0.0
 11
137.5633701745
 21
115.9047180029
 31
0.0
  0
LINE
  5
1F4
330
1F
100
AcDbEntity
  8
0
  6
Continuous
 62
     7
370
    15
100
AcDbLine
 10
137.5633701745
 20
115.9047180029
 30
0.0
 11
137.5633701745
 21
109.9047207448
 31
0.0
  0
LINE
  5
1F5
330
1F
100
AcDbEntity
  8
0
  6
Continuous
 62
     7
370
    15
100
AcDbLine
 10
140.0633737507
 20
109.9047207448
 30
0.0
 11
137.5633701745
 21
109.9047207448
 31
0.0
  0
LINE
  5
1F6
330
1F
100
AcDbEntity
  8
0
  6
Continuous
 62
     7
370
    15
100
AcDbLine
 10
131.363372511
 20
118.2547205302
 30
0.0
 11
131.363372511
 21
116.204720101
 31
0.0
  0
LINE
  5
1F7
330
1F
100
AcDbEntity
  8
0
  6
Continuous
 62
     7
370
    15
100
AcDbLine
 10
137.3633727494
 20
116.204720101
 30
0.0
 11
131.363372511
 21
116.204720101
 31
0.0
  0
LINE
  5
1F8
330
1F
100
AcDbEntity
  8
0
  6
Continuous
 62
     7
370
    15
100
AcDbLine
 10
137.3633727494
 20
118.2547205302
 30
0.0
 11
137.3633727494
 21
116.204720101
 31
0.0
  0
LINE
  5
1F9
330
1F
100
AcDbEntity
  8
0
  6
Continuous
 62
     7
370
    15
100
AcDbLine
 10
131.363372511
 20
118.2547205302
 30
0.0
 11
137.3633727494
 21
118.2547205302
 31
0.0
  0
LINE
  5
1FA
330
1F
100
AcDbEntity
  8
0
  6
Continuous
 62
     7
370
    15
100
AcDbLine
 10
137.3633727494
 20
115.9047180029
 30
0.0
 11
131.363372511
 21
115.9047180029
 31
0.0
  0
LINE
  5
1FB
330
1F
100
AcDbEntity
  8
0
  6
Continuous
 62
     7
370
    15
100
AcDbLine
 10
131.363372511
 20
115.9047180029
 30
0.0
 11
131.363372511
 21
109.9047207448
 31
0.0
  0
LINE
  5
1FC
330
1F
100
AcDbEntity
  8
0
  6
Continuous
 62
     7
370
    15
100
AcDbLine
 10
137.3633727494
 20
109.9047207448
 30
0.0
 11
131.363372511
 21
109.9047207448
 31
0.0
  0
LINE
  5
1FD
330
1F
100
AcDbEntity
  8
0
  6
Continuous
 62
     7
370
    15
100
AcDbLine
 10
137.3633727494
 20
115.9047180029
 30
0.0
 11
137.3633727494
 21
109.9047207448
 31
0.0
  0
LINE
  5
1FE
330
1F
100
AcDbEntity
  8
0
  6
Continuous
 62
     7
370
    15
100
AcDbLine
 10
137.3633727494
 20
109.6047186467
 30
0.0
 11
131.363372511
 21
109.6047186467
 31
0.0
  0
LINE
  5
1FF
330
1F
100
AcDbEntity
  8
0
  6
Continuous
 62
     7
370
    15
100
AcDbLine
 10
131.363372511
 20
109.6047186467
 30
0.0
 11
131.363372511
 21
103.6047184082
 31
0.0
  0
LINE
  5
200
330
1F
100
AcDbEntity
  8
0
  6
Continuous
 62
     7
370
    15
100
AcDbLine
 10
137.3633727494
 20
103.6047184082
 30
0.0
 11
131.363372511
 21
103.6047184082
 31
0.0
  0
LINE
  5
201
330
1F
100
AcDbEntity
  8
0
  6
Continuous
 62
     7
370
    15
100
AcDbLine
 10
137.3633727494
 20
109.6047186467
 30
0.0
 11
137.3633727494
 21
103.6047184082
 31
0.0
  0
LINE
  5
202
330
1F
100
AcDbEntity
  8
0
  6
Continuous
 62
     7
370
    15
100
AcDbLine
 10
137.3633727494
 20
103.3047192904
 30
0.0
 11
131.363372511
 21
103.3047192904
 31
0.0
  0
LINE
  5
203
330
1F
100
AcDbEntity
  8
0
  6
Continuous
 62
     7
370
    15
100
AcDbLine
 10
131.363372511
 20
103.3047192904
 30
0.0
 11
131.363372511
 21
97.304719052
 31
0.0
  0
LINE
  5
204
330
1F
100
AcDbEntity
  8
0
  6
Continuous
 62
     7
370
    15
100
AcDbLine
 10
137.3633727494
 20
97.304719052
 30
0.0
 11
131.363372511
 21
97.304719052
 31
0.0
  0
LINE
  5
205
330
1F
100
AcDbEntity
  8
0
  6
Continuous
 62
     7
370
    15
100
AcDbLine
 10
137.3633727494
 20
103.3047192904
 30
0.0
 11
137.3633727494
 21
97.304719052
 31
0.0
  0
LINE
  5
206
330
1F
100
AcDbEntity
  8
0
  6
Continuous
 62
     7
370
    15
100
AcDbLine
 10
131.363372511
 20
71.8047195288
 30
0.0
 11
131.363372511
 21
65.8047196629
 31
0.0
  0
LINE
  5
207
330
1F
100
AcDbEntity
  8
0
  6
Continuous
 62
     7
370
    15
100
AcDbLine
 10
137.3633727494
 20
65.8047196629
 30
0.0
 11
131.363372511
 21
65.8047196629
 31
0.0
  0
LINE
  5
208
330
1F
100
AcDbEntity
  8
0
  6
Continuous
 62
     7
370
    15
100
AcDbLine
 10
137.3633727494
 20
71.8047195288
 30
0.0
 11
137.3633727494
 21
65.8047196629
 31
0.0
  0
LINE
  5
209
330
1F
100
AcDbEntity
  8
0
  6
Continuous
 62
     7
370
    15
100
AcDbLine
 10
137.3633727494
 20
71.8047195288
 30
0.0
 11
131.363372511
 21
71.8047195288
 31
0.0
  0
LINE
  5
20A
330
1F
100
AcDbEntity
  8
0
  6
Continuous
 62
     7
370
    15
100
AcDbLine
 10
131.363372511
 20
78.1047188851
 30
0.0
 11
131.363372511
 21
72.1047193917
 31
0.0
  0
LINE
  5
20B
330
1F
100
AcDbEntity
  8
0
  6
Continuous
 62
     7
370
    15
100
AcDbLine
 10
137.3633727494
 20
72.1047193917
 30
0.0
 11
131.363372511
 21
72.1047193917
 31
0.0
  0
LINE
  5
20C
330
1F
100
AcDbEntity
  8
0
  6
Continuous
 62
     7
370
    15
100
AcDbLine
 10
137.3633727494
 20
78.1047188851
 30
0.0
 11
137.3633727494
 21
72.1047193917
 31
0.0
  0
LINE
  5
20D
330
1F
100
AcDbEntity
  8
0
  6
Continuous
 62
     7
370
    15
100
AcDbLine
 10
137.3633727494
 20
78.1047188851
 30
0.0
 11
131.363372511
 21
78.1047188851
 31
0.0
  0
LINE
  5
20E
330
1F
100
AcDbEntity
  8
0
  6
Continuous
 62
     7
370
    15
100
AcDbLine
 10
131.363372511
 20
84.4047197315
 30
0.0
 11
131.363372511
 21
78.4047194931
 31
0.0
  0
LINE
  5
20F
330
1F
100
AcDbEntity
  8
0
  6
Continuous
 62
     7
370
    15
100
AcDbLine
 10
137.3633727494
 20
78.4047194931
 30
0.0
 11
131.363372511
 21
78.4047194931
 31
0.0
  0
LINE
  5
210
330
1F
100
AcDbEntity
  8
0
  6
Continuous
 62
     7
370
    15
100
AcDbLine
 10
137.3633727494
 20
84.4047197315
 30
0.0
 11
137.3633727494
 21
78.4047194931
 31
0.0
  0
LINE
  5
211
330
1F
100
AcDbEntity
  8
0
  6
Continuous
 62
     7
370
    15
100
AcDbLine
 10
137.3633727494
 20
84.4047197315
 30
0.0
 11
131.363372511
 21
84.4047197315
 31
0.0
  0
LINE
  5
212
330
1F
100
AcDbEntity
  8
0
  6
Continuous
 62
     7
370
    15
100
AcDbLine
 10
131.363372511
 20
90.7047205779
 30
0.0
 11
131.363372511
 21
84.7047188493
 31
0.0
  0
LINE
  5
213
330
1F
100
AcDbEntity
  8
0
  6
Continuous
 62
     7
370
    15
100
AcDbLine
 10
137.3633727494
 20
84.7047188493
 30
0.0
 11
131.363372511
 21
84.7047188493
 31
0.0
  0
LINE
  5
214
330
1F
100
AcDbEntity
  8
0
  6
Continuous
 62
     7
370
    15
100
AcDbLine
 10
137.3633727494
 20
90.7047205779
 30
0.0
 11
137.3633727494
 21
84.7047188493
 31
0.0
  0
LINE
  5
215
330
1F
100
AcDbEntity
  8
0
  6
Continuous
 62
     7
370
    15
100
AcDbLine
 10
137.3633727494
 20
90.7047205779
 30
0.0
 11
131.363372511
 21
90.7047205779
 31
0.0
  0
LINE
  5
216
330
1F
100
AcDbEntity
  8
0
  6
Continuous
 62
     7
370
    15
100
AcDbLine
 10
137.3633727494
 20
97.0047199341
 30
0.0
 11
131.363372511
 21
97.0047199341
 31
0.0
  0
LINE
  5
217
330
1F
100
AcDbEntity
  8
0
  6
Continuous
 62
     7
370
    15
100
AcDbLine
 10
131.363372511
 20
97.0047199341
 30
0.0
 11
131.363372511
 21
91.0047196957
 31
0.0
  0
LINE
  5
218
330
1F
100
AcDbEntity
  8
0
  6
Continuous
 62
     7
370
    15
100
AcDbLine
 10
137.3633727494
 20
91.0047196957
 30
0.0
 11
131.363372511
 21
91.0047196957
 31
0.0
  0
LINE
  5
219
330
1F
100
AcDbEntity
  8
0
  6
Continuous
 62
     7
370
    15
100
AcDbLine
 10
137.3633727494
 20
97.0047199341
 30
0.0
 11
137.3633727494
 21
91.0047196957
 31
0.0
  0
LINE
  5
21A
330
1F
100
AcDbEntity
  8
0
  6
Continuous
 62
     7
370
    15
100
AcDbLine
 10
140.0633737507
 20
116.204720101
 30
0.0
 11
137.5633701745
 21
116.204720101
 31
0.0
  0
LINE
  5
21B
330
1F
100
AcDbEntity
  8
0
  6
Continuous
 62
     7
370
    15
100
AcDbLine
 10
140.0633737507
 20
118.2547205302
 30
0.0
 11
140.0633737507
 21
116.204720101
 31
0.0
  0
LINE
  5
21C
330
1F
100
AcDbEntity
  8
0
  6
Continuous
 62
     7
370
    15
100
AcDbLine
 10
141.6633710328
 20
119.8547178122
 30
0.0
 11
141.6633710328
 21
61.8547194811
 31
0.0
  0
LINE
  5
21D
330
1F
100
AcDbEntity
  8
0
  6
Continuous
 62
     7
370
    15
100
AcDbLine
 10
140.0633737507
 20
65.5047194275
 30
0.0
 11
140.0633737507
 21
63.4547195571
 31
0.0
  0
LINE
  5
21E
330
1F
100
AcDbEntity
  8
0
  6
Continuous
 62
     7
370
    15
100
AcDbLine
 10
140.0633737507
 20
65.5047194275
 30
0.0
 11
137.5633701745
 21
65.5047194275
 31
0.0
  0
LINE
  5
21F
330
1F
100
AcDbEntity
  8
0
  6
Continuous
 62
     7
370
    15
100
AcDbLine
 10
137.5633701745
 20
65.5047194275
 30
0.0
 11
137.5633701745
 21
63.4547195571
 31
0.0
  0
LINE
  5
220
330
1F
100
AcDbEntity
  8
0
  6
Continuous
 62
     7
370
    15
100
AcDbLine
 10
140.0633737507
 20
63.4547195571
 30
0.0
 11
137.5633701745
 21
63.4547195571
 31
0.0
  0
LINE
  5
221
330
1F
100
AcDbEntity
  8
0
  6
Continuous
 62
     7
370
    15
100
AcDbLine
 10
140.0633737507
 20
63.4547195571
 30
0.0
 11
141.6633710328
 21
61.8547194811
 31
0.0
  0
LINE
  5
222
330
1F
100
AcDbEntity
  8
0
  6
Continuous
 62
     7
370
    15
100
AcDbLine
 10
141.6633710328
 20
61.8547194811
 30
0.0
 11
83.6633727017
 21
61.8547194811
 31
0.0
  0
LINE
  5
223
330
1F
100
AcDbEntity
  8
0
  6
Continuous
 62
     7
370
    15
100
AcDbLine
 10
87.7633728149
 20
63.4547195571
 30
0.0
 11
85.2633727777
 21
63.4547195571
 31
0.0
  0
LINE
  5
224
330
1F
100
AcDbEntity
  8
0
  6
Continuous
 62
     7
370
    15
100
AcDbLine
 10
87.7633728149
 20
65.5047194275
 30
0.0
 11
87.7633728149
 21
63.4547195571
 31
0.0
  0
LINE
  5
225
330
1F
100
AcDbEntity
  8
0
  6
Continuous
 62
     7
370
    15
100
AcDbLine
 10
87.7633728149
 20
65.5047194275
 30
0.0
 11
85.2633727777
 21
65.5047194275
 31
0.0
  0
LINE
  5
226
330
1F
100
AcDbEntity
  8
0
  6
Continuous
 62
     7
370
    15
100
AcDbLine
 10
85.2633727777
 20
65.5047194275
 30
0.0
 11
85.2633727777
 21
63.4547195571
 31
0.0
  0
LINE
  5
227
330
1F
100
AcDbEntity
  8
0
  6
Continuous
 62
     7
370
    15
100
AcDbLine
 10
83.6633727017
 20
61.8547194811
 30
0.0
 11
85.2633727777
 21
63.4547195571
 31
0.0
  0
LINE
  5
228
330
1F
100
AcDbEntity
  8
0
  6
Continuous
 62
     7
370
    15
100
AcDbLine
 10
83.6633727017
 20
119.8547178122
 30
0.0
 11
83.6633727017
 21
61.8547194811
 31
0.0
  0
LINE
  5
229
330
1F
100
AcDbEntity
  8
0
  6
Continuous
 62
     7
370
    15
100
AcDbLine
 10
85.2633727777
 20
118.2547205302
 30
0.0
 11
85.2633727777
 21
116.204720101
 31
0.0
  0
LINE
  5
22A
330
1F
100
AcDbEntity
  8
0
  6
Continuous
 62
     7
370
    15
100
AcDbLine
 10
87.7633728149
 20
116.204720101
 30
0.0
 11
85.2633727777
 21
116.204720101
 31
0.0
  0
LINE
  5
22B
330
1F
100
AcDbEntity
  8
0
  6
Continuous
 62
     7
370
    15
100
AcDbLine
 10
87.7633728149
 20
118.2547205302
 30
0.0
 11
87.7633728149
 21
116.204720101
 31
0.0
  0
LINE
  5
22C
330
1F
100
AcDbEntity
  8
0
  6
Continuous
 62
     7
370
    15
100
AcDbLine
 10
85.2633727777
 20
118.2547205302
 30
0.0
 11
87.7633728149
 21
118.2547205302
 31
0.0
  0
LINE
  5
22D
330
1F
100
AcDbEntity
  8
0
  6
Continuous
 62
     7
370
    15
100
AcDbLine
 10
85.2633727777
 20
118.2547205302
 30
0.0
 11
83.6633727017
 21
119.8547178122
 31
0.0
  0
LINE
  5
22E
330
1F
100
AcDbEntity
  8
0
  6
Continuous
 62
     7
370
    15
100
AcDbLine
 10
83.6633727017
 20
119.8547178122
 30
0.0
 11
141.6633710328
 21
119.8547178122
 31
0.0
  0
LINE
  5
22F
330
1F
100
AcDbEntity
  8
0
  6
Continuous
 62
     7
370
    15
100
AcDbLine
 10
141.6633710328
 20
119.8547178122
 30
0.0
 11
140.0633737507
 21
118.2547205302
 31
0.0
  0
LINE
  5
230
330
1F
100
AcDbEntity
  8
0
  6
Continuous
 62
     7
370
    15
100
AcDbLine
 10
137.5633701745
 20
118.2547205302
 30
0.0
 11
140.0633737507
 21
118.2547205302
 31
0.0
  0
LINE
  5
231
330
1F
100
AcDbEntity
  8
0
  6
Continuous
 62
     7
370
    15
100
AcDbLine
 10
137.5633701745
 20
118.2547205302
 30
0.0
 11
137.5633701745
 21
116.204720101
 31
0.0
  0
LINE
  5
232
330
1F
100
AcDbEntity
  8
0
  6
Continuous
 62
     7
370
    15
100
AcDbLine
 10
137.3633727494
 20
65.5047194275
 30
0.0
 11
131.363372511
 21
65.5047194275
 31
0.0
  0
LINE
  5
233
330
1F
100
AcDbEntity
  8
0
  6
Continuous
 62
     7
370
    15
100
AcDbLine
 10
131.363372511
 20
65.5047194275
 30
0.0
 11
131.363372511
 21
63.4547195571
 31
0.0
  0
LINE
  5
234
330
1F
100
AcDbEntity
  8
0
  6
Continuous
 62
     7
370
    15
100
AcDbLine
 10
137.3633727494
 20
63.4547195571
 30
0.0
 11
131.363372511
 21
63.4547195571
 31
0.0
  0
LINE
  5
235
330
1F
100
AcDbEntity
  8
0
  6
Continuous
 62
     7
370
    15
100
AcDbLine
 10
137.3633727494
 20
65.5047194275
 30
0.0
 11
137.3633727494
 21
63.4547195571
 31
0.0
  0
LINE
  5
236
330
1F
100
AcDbEntity
  8
0
  6
Continuous
 62
     7
370
    15
100
AcDbLine
 10
229.9139736794
 20
103.571707107
 30
0.0
 11
224.6074650679
 21
105.0139024428
 31
0.0
  0
LINE
  5
237
330
1F
100
AcDbEntity
  8
0
  6
Continuous
 62
     7
370
    15
100
AcDbLine
 10
230.870699427
 20
104.5055007664
 30
0.0
 11
229.9139736794
 21
103.571707107
 31
0.0
  0
LINE
  5
238
330
1F
100
AcDbEntity
  8
0
  6
Continuous
 62
     7
370
    15
100
AcDbLine
 10
225.5641908155
 20
105.9476961023
 30
0.0
 11
230.870699427
 21
104.5055007664
 31
0.0
  0
LINE
  5
239
330
1F
100
AcDbEntity
  8
0
  6
Continuous
 62
     7
370
    15
100
AcDbLine
 10
225.5641908155
 20
105.9476961023
 30
0.0
 11
224.6074650679
 21
105.0139024428
 31
0.0
  0
LINE
  5
23A
330
1F
100
AcDbEntity
  8
0
  6
Continuous
 62
     7
370
    15
100
AcDbLine
 10
206.2525171463
 20
80.4774001552
 30
0.0
 11
205.2957916595
 21
79.5436067503
 31
0.0
  0
LINE
  5
23B
330
1F
100
AcDbEntity
  8
0
  6
Continuous
 62
     7
370
    15
100
AcDbLine
 10
206.2525171463
 20
80.4774001552
 30
0.0
 11
200.9460085348
 21
81.919595491
 31
0.0
  0
LINE
  5
23C
330
1F
100
AcDbEntity
  8
0
  6
Continuous
 62
     7
370
    15
100
AcDbLine
 10
200.9460085348
 20
81.919595491
 30
0.0
 11
199.989283048
 21
80.9858020861
 31
0.0
  0
LINE
  5
23D
330
1F
100
AcDbEntity
  8
0
  6
Continuous
 62
     7
370
    15
100
AcDbLine
 10
205.2957916595
 20
79.5436067503
 30
0.0
 11
199.989283048
 21
80.9858020861
 31
0.0
  0
LINE
  5
23E
330
1F
100
AcDbEntity
  8
0
  6
Continuous
 62
     7
370
    15
100
AcDbLine
 10
222.0795264816
 20
105.5262367176
 30
0.0
 11
219.2793554276
 21
102.7931839257
 31
0.0
  0
LINE
  5
23F
330
1F
100
AcDbEntity
  8
0
  6
Continuous
 62
     7
370
    15
100
AcDbLine
 10
221.4904007647
 20
102.19226918
 30
0.0
 11
219.2793554276
 21
102.7931839257
 31
0.0
  0
LINE
  5
240
330
1F
100
AcDbEntity
  8
0
  6
Continuous
 62
     7
370
    15
100
AcDbLine
 10
224.2905718187
 20
104.9253219719
 30
0.0
 11
221.4904007647
 21
102.19226918
 31
0.0
  0
LINE
  5
241
330
1F
100
AcDbEntity
  8
0
  6
Continuous
 62
     7
370
    15
100
AcDbLine
 10
224.2905718187
 20
104.9253219719
 30
0.0
 11
222.0795264816
 21
105.5262367176
 31
0.0
  0
LINE
  5
242
330
1F
100
AcDbEntity
  8
0
  6
Continuous
 62
     7
370
    15
100
AcDbLine
 10
219.1393458318
 20
102.6565302679
 30
0.0
 11
216.3391733869
 21
99.9234761185
 31
0.0
  0
LINE
  5
243
330
1F
100
AcDbEntity
  8
0
  6
Continuous
 62
     7
370
    15
100
AcDbLine
 10
218.5502187241
 20
99.3225613728
 30
0.0
 11
216.3391733869
 21
99.9234761185
 31
0.0
  0
LINE
  5
244
330
1F
100
AcDbEntity
  8
0
  6
Continuous
 62
     7
370
    15
100
AcDbLine
 10
221.3503911689
 20
102.0556155223
 30
0.0
 11
218.5502187241
 21
99.3225613728
 31
0.0
  0
LINE
  5
245
330
1F
100
AcDbEntity
  8
0
  6
Continuous
 62
     7
370
    15
100
AcDbLine
 10
221.3503911689
 20
102.0556155223
 30
0.0
 11
219.1393458318
 21
102.6565302679
 31
0.0
  0
LINE
  5
246
330
1F
100
AcDbEntity
  8
0
  6
Continuous
 62
     7
370
    15
100
AcDbLine
 10
216.1991651819
 20
99.7868238183
 30
0.0
 11
213.3989927371
 21
97.0537696689
 31
0.0
  0
LINE
  5
247
330
1F
100
AcDbEntity
  8
0
  6
Continuous
 62
     7
370
    15
100
AcDbLine
 10
215.6100380742
 20
96.4528549232
 30
0.0
 11
213.3989927371
 21
97.0537696689
 31
0.0
  0
LINE
  5
248
330
1F
100
AcDbEntity
  8
0
  6
Continuous
 62
     7
370
    15
100
AcDbLine
 10
218.4102105191
 20
99.1859090726
 30
0.0
 11
215.6100380742
 21
96.4528549232
 31
0.0
  0
LINE
  5
249
330
1F
100
AcDbEntity
  8
0
  6
Continuous
 62
     7
370
    15
100
AcDbLine
 10
218.4102105191
 20
99.1859090726
 30
0.0
 11
216.1991651819
 21
99.7868238183
 31
0.0
  0
LINE
  5
24A
330
1F
100
AcDbEntity
  8
0
  6
Continuous
 62
     7
370
    15
100
AcDbLine
 10
213.2589845321
 20
96.9171173686
 30
0.0
 11
210.4588120872
 21
94.1840632192
 31
0.0
  0
LINE
  5
24B
330
1F
100
AcDbEntity
  8
0
  6
Continuous
 62
     7
370
    15
100
AcDbLine
 10
212.6698574244
 20
93.5831484735
 30
0.0
 11
210.4588120872
 21
94.1840632192
 31
0.0
  0
LINE
  5
24C
330
1F
100
AcDbEntity
  8
0
  6
Continuous
 62
     7
370
    15
100
AcDbLine
 10
215.4700298692
 20
96.316202623
 30
0.0
 11
212.6698574244
 21
93.5831484735
 31
0.0
  0
LINE
  5
24D
330
1F
100
AcDbEntity
  8
0
  6
Continuous
 62
     7
370
    15
100
AcDbLine
 10
215.4700298692
 20
96.316202623
 30
0.0
 11
213.2589845321
 21
96.9171173686
 31
0.0
  0
LINE
  5
24E
330
1F
100
AcDbEntity
  8
0
  6
Continuous
 62
     7
370
    15
100
AcDbLine
 10
210.3188038823
 20
94.047410919
 30
0.0
 11
207.518630742
 21
91.3143560908
 31
0.0
  0
LINE
  5
24F
330
1F
100
AcDbEntity
  8
0
  6
Continuous
 62
     7
370
    15
100
AcDbLine
 10
209.7296760791
 20
90.7134413451
 30
0.0
 11
207.518630742
 21
91.3143560908
 31
0.0
  0
LINE
  5
250
330
1F
100
AcDbEntity
  8
0
  6
Continuous
 62
     7
370
    15
100
AcDbLine
 10
212.5298492194
 20
93.4464961733
 30
0.0
 11
209.7296760791
 21
90.7134413451
 31
0.0
  0
LINE
  5
251
330
1F
100
AcDbEntity
  8
0
  6
Continuous
 62
     7
370
    15
100
AcDbLine
 10
212.5298492194
 20
93.4464961733
 30
0.0
 11
210.3188038823
 21
94.047410919
 31
0.0
  0
LINE
  5
252
330
1F
100
AcDbEntity
  8
0
  6
Continuous
 62
     7
370
    15
100
AcDbLine
 10
207.378622537
 20
91.1777037906
 30
0.0
 11
204.5784500921
 21
88.4446496412
 31
0.0
  0
LINE
  5
253
330
1F
100
AcDbEntity
  8
0
  6
Continuous
 62
     7
370
    15
100
AcDbLine
 10
206.7894954293
 20
87.8437348955
 30
0.0
 11
204.5784500921
 21
88.4446496412
 31
0.0
  0
LINE
  5
254
330
1F
100
AcDbEntity
  8
0
  6
Continuous
 62
     7
370
    15
100
AcDbLine
 10
209.5896678741
 20
90.5767890449
 30
0.0
 11
206.7894954293
 21
87.8437348955
 31
0.0
  0
LINE
  5
255
330
1F
100
AcDbEntity
  8
0
  6
Continuous
 62
     7
370
    15
100
AcDbLine
 10
209.5896678741
 20
90.5767890449
 30
0.0
 11
207.378622537
 21
91.1777037906
 31
0.0
  0
LINE
  5
256
330
1F
100
AcDbEntity
  8
0
  6
Continuous
 62
     7
370
    15
100
AcDbLine
 10
204.4384411917
 20
88.3079966622
 30
0.0
 11
201.6382690946
 21
85.5749428521
 31
0.0
  0
LINE
  5
257
330
1F
100
AcDbEntity
  8
0
  6
Continuous
 62
     7
370
    15
100
AcDbLine
 10
203.8493144317
 20
84.9740281065
 30
0.0
 11
201.6382690946
 21
85.5749428521
 31
0.0
  0
LINE
  5
258
330
1F
100
AcDbEntity
  8
0
  6
Continuous
 62
     7
370
    15
100
AcDbLine
 10
206.6494865289
 20
87.7070819165
 30
0.0
 11
203.8493144317
 21
84.9740281065
 31
0.0
  0
LINE
  5
259
330
1F
100
AcDbEntity
  8
0
  6
Continuous
 62
     7
370
    15
100
AcDbLine
 10
206.6494865289
 20
87.7070819165
 30
0.0
 11
204.4384411917
 21
88.3079966622
 31
0.0
  0
LINE
  5
25A
330
1F
100
AcDbEntity
  8
0
  6
Continuous
 62
     7
370
    15
100
AcDbLine
 10
201.4982605419
 20
85.4382902125
 30
0.0
 11
198.6980882709
 21
82.7052362328
 31
0.0
  0
LINE
  5
25B
330
1F
100
AcDbEntity
  8
0
  6
Continuous
 62
     7
370
    15
100
AcDbLine
 10
200.909133608
 20
82.1043214871
 30
0.0
 11
198.6980882709
 21
82.7052362328
 31
0.0
  0
LINE
  5
25C
330
1F
100
AcDbEntity
  8
0
  6
Continuous
 62
     7
370
    15
100
AcDbLine
 10
203.709305879
 20
84.8373754669
 30
0.0
 11
200.909133608
 21
82.1043214871
 31
0.0
  0
LINE
  5
25D
330
1F
100
AcDbEntity
  8
0
  6
Continuous
 62
     7
370
    15
100
AcDbLine
 10
203.709305879
 20
84.8373754669
 30
0.0
 11
201.4982605419
 21
85.4382902125
 31
0.0
  0
LINE
  5
25E
330
1F
100
AcDbEntity
  8
0
  6
Continuous
 62
     7
370
    15
100
AcDbLine
 10
209.1926981438
 20
83.3471069442
 30
0.0
 11
206.3925258728
 21
80.6140529645
 31
0.0
  0
LINE
  5
25F
330
1F
100
AcDbEntity
  8
0
  6
Continuous
 62
     7
370
    15
100
AcDbLine
 10
209.1926981438
 20
83.3471069442
 30
0.0
 11
203.8861895324
 21
84.7893022801
 31
0.0
  0
LINE
  5
260
330
1F
100
AcDbEntity
  8
0
  6
Continuous
 62
     7
370
    15
100
AcDbLine
 10
203.8861895324
 20
84.7893022801
 30
0.0
 11
201.0860172614
 21
82.0562483003
 31
0.0
  0
LINE
  5
261
330
1F
100
AcDbEntity
  8
0
  6
Continuous
 62
     7
370
    15
100
AcDbLine
 10
206.3925258728
 20
80.6140529645
 30
0.0
 11
201.0860172614
 21
82.0562483003
 31
0.0
  0
LINE
  5
262
330
1F
100
AcDbEntity
  8
0
  6
Continuous
 62
     7
370
    15
100
AcDbLine
 10
212.1328787937
 20
86.2168133938
 30
0.0
 11
209.3327066965
 21
83.4837595838
 31
0.0
  0
LINE
  5
263
330
1F
100
AcDbEntity
  8
0
  6
Continuous
 62
     7
370
    15
100
AcDbLine
 10
212.1328787937
 20
86.2168133938
 30
0.0
 11
206.8263701822
 21
87.6590087297
 31
0.0
  0
LINE
  5
264
330
1F
100
AcDbEntity
  8
0
  6
Continuous
 62
     7
370
    15
100
AcDbLine
 10
206.8263701822
 20
87.6590087297
 30
0.0
 11
204.0261980851
 21
84.9259549197
 31
0.0
  0
LINE
  5
265
330
1F
100
AcDbEntity
  8
0
  6
Continuous
 62
     7
370
    15
100
AcDbLine
 10
209.3327066965
 20
83.4837595838
 30
0.0
 11
204.0261980851
 21
84.9259549197
 31
0.0
  0
LINE
  5
266
330
1F
100
AcDbEntity
  8
0
  6
Continuous
 62
     7
370
    15
100
AcDbLine
 10
215.0730601389
 20
89.0865205222
 30
0.0
 11
212.2728876941
 21
86.3534663728
 31
0.0
  0
LINE
  5
267
330
1F
100
AcDbEntity
  8
0
  6
Continuous
 62
     7
370
    15
100
AcDbLine
 10
215.0730601389
 20
89.0865205222
 30
0.0
 11
209.7665515275
 21
90.5287158581
 31
0.0
  0
LINE
  5
268
330
1F
100
AcDbEntity
  8
0
  6
Continuous
 62
     7
370
    15
100
AcDbLine
 10
209.7665515275
 20
90.5287158581
 30
0.0
 11
206.9663790826
 21
87.7956617087
 31
0.0
  0
LINE
  5
269
330
1F
100
AcDbEntity
  8
0
  6
Continuous
 62
     7
370
    15
100
AcDbLine
 10
212.2728876941
 20
86.3534663728
 30
0.0
 11
206.9663790826
 21
87.7956617087
 31
0.0
  0
LINE
  5
26A
330
1F
100
AcDbEntity
  8
0
  6
Continuous
 62
     7
370
    15
100
AcDbLine
 10
218.0132414842
 20
91.9562276506
 30
0.0
 11
215.2130683439
 21
89.2231728225
 31
0.0
  0
LINE
  5
26B
330
1F
100
AcDbEntity
  8
0
  6
Continuous
 62
     7
370
    15
100
AcDbLine
 10
218.0132414842
 20
91.9562276506
 30
0.0
 11
212.7067328727
 21
93.3984229865
 31
0.0
  0
LINE
  5
26C
330
1F
100
AcDbEntity
  8
0
  6
Continuous
 62
     7
370
    15
100
AcDbLine
 10
212.7067328727
 20
93.3984229865
 30
0.0
 11
209.9065597325
 21
90.6653681583
 31
0.0
  0
LINE
  5
26D
330
1F
100
AcDbEntity
  8
0
  6
Continuous
 62
     7
370
    15
100
AcDbLine
 10
215.2130683439
 20
89.2231728225
 30
0.0
 11
209.9065597325
 21
90.6653681583
 31
0.0
  0
LINE
  5
26E
330
1F
100
AcDbEntity
  8
0
  6
Continuous
 62
     7
370
    15
100
AcDbLine
 10
220.953422134
 20
94.8259341003
 30
0.0
 11
218.1532496892
 21
92.0928799509
 31
0.0
  0
LINE
  5
26F
330
1F
100
AcDbEntity
  8
0
  6
Continuous
 62
     7
370
    15
100
AcDbLine
 10
220.953422134
 20
94.8259341003
 30
0.0
 11
215.6469135226
 21
96.2681294362
 31
0.0
  0
LINE
  5
270
330
1F
100
AcDbEntity
  8
0
  6
Continuous
 62
     7
370
    15
100
AcDbLine
 10
215.6469135226
 20
96.2681294362
 30
0.0
 11
212.8467410777
 21
93.5350752867
 31
0.0
  0
LINE
  5
271
330
1F
100
AcDbEntity
  8
0
  6
Continuous
 62
     7
370
    15
100
AcDbLine
 10
218.1532496892
 20
92.0928799509
 30
0.0
 11
212.8467410777
 21
93.5350752867
 31
0.0
  0
LINE
  5
272
330
1F
100
AcDbEntity
  8
0
  6
Continuous
 62
     7
370
    15
100
AcDbLine
 10
223.8936027839
 20
97.6956405499
 30
0.0
 11
221.093430339
 21
94.9625864005
 31
0.0
  0
LINE
  5
273
330
1F
100
AcDbEntity
  8
0
  6
Continuous
 62
     7
370
    15
100
AcDbLine
 10
223.8936027839
 20
97.6956405499
 30
0.0
 11
218.5870941724
 21
99.1378358858
 31
0.0
  0
LINE
  5
274
330
1F
100
AcDbEntity
  8
0
  6
Continuous
 62
     7
370
    15
100
AcDbLine
 10
218.5870941724
 20
99.1378358858
 30
0.0
 11
215.7869217275
 21
96.4047817364
 31
0.0
  0
LINE
  5
275
330
1F
100
AcDbEntity
  8
0
  6
Continuous
 62
     7
370
    15
100
AcDbLine
 10
221.093430339
 20
94.9625864005
 30
0.0
 11
215.7869217275
 21
96.4047817364
 31
0.0
  0
LINE
  5
276
330
1F
100
AcDbEntity
  8
0
  6
Continuous
 62
     7
370
    15
100
AcDbLine
 10
226.8337834337
 20
100.5653469996
 30
0.0
 11
224.0336109888
 21
97.8322928501
 31
0.0
  0
LINE
  5
277
330
1F
100
AcDbEntity
  8
0
  6
Continuous
 62
     7
370
    15
100
AcDbLine
 10
226.8337834337
 20
100.5653469996
 30
0.0
 11
221.5272748222
 21
102.0075423354
 31
0.0
  0
LINE
  5
278
330
1F
100
AcDbEntity
  8
0
  6
Continuous
 62
     7
370
    15
100
AcDbLine
 10
221.5272748222
 20
102.0075423354
 30
0.0
 11
218.7271023774
 21
99.274488186
 31
0.0
  0
LINE
  5
279
330
1F
100
AcDbEntity
  8
0
  6
Continuous
 62
     7
370
    15
100
AcDbLine
 10
224.0336109888
 20
97.8322928501
 30
0.0
 11
218.7271023774
 21
99.274488186
 31
0.0
  0
LINE
  5
27A
330
1F
100
AcDbEntity
  8
0
  6
Continuous
 62
     7
370
    15
100
AcDbLine
 10
229.7739640835
 20
103.4350534492
 30
0.0
 11
226.9737930295
 21
100.7020006573
 31
0.0
  0
LINE
  5
27B
330
1F
100
AcDbEntity
  8
0
  6
Continuous
 62
     7
370
    15
100
AcDbLine
 10
229.7739640835
 20
103.4350534492
 30
0.0
 11
224.4674554721
 21
104.8772487851
 31
0.0
  0
LINE
  5
27C
330
1F
100
AcDbEntity
  8
0
  6
Continuous
 62
     7
370
    15
100
AcDbLine
 10
224.4674554721
 20
104.8772487851
 30
0.0
 11
221.6672844181
 21
102.1441959932
 31
0.0
  0
LINE
  5
27D
330
1F
100
AcDbEntity
  8
0
  6
Continuous
 62
     7
370
    15
100
AcDbLine
 10
226.9737930295
 20
100.7020006573
 30
0.0
 11
221.6672844181
 21
102.1441959932
 31
0.0
  0
LINE
  5
27E
330
1F
100
AcDbEntity
  8
0
  6
Continuous
 62
     7
370
    15
100
AcDbLine
 10
235.3973666031
 20
102.0814384052
 30
0.0
 11
230.0908570032
 21
103.5236340097
 31
0.0
  0
LINE
  5
27F
330
1F
100
AcDbEntity
  8
0
  6
Continuous
 62
     7
370
    15
100
AcDbLine
 10
236.3540923507
 20
103.0152320646
 30
0.0
 11
235.3973666031
 21
102.0814384052
 31
0.0
  0
LINE
  5
280
330
1F
100
AcDbEntity
  8
0
  6
Continuous
 62
     7
370
    15
100
AcDbLine
 10
231.0475827508
 20
104.4574276691
 30
0.0
 11
236.3540923507
 21
103.0152320646
 31
0.0
  0
LINE
  5
281
330
1F
100
AcDbEntity
  8
0
  6
Continuous
 62
     7
370
    15
100
AcDbLine
 10
231.0475827508
 20
104.4574276691
 30
0.0
 11
230.0908570032
 21
103.5236340097
 31
0.0
  0
LINE
  5
282
330
1F
100
AcDbEntity
  8
0
  6
Continuous
 62
     7
370
    15
100
AcDbLine
 10
211.73591007
 20
78.9871314534
 30
0.0
 11
210.7791845832
 21
78.0533380485
 31
0.0
  0
LINE
  5
283
330
1F
100
AcDbEntity
  8
0
  6
Continuous
 62
     7
370
    15
100
AcDbLine
 10
211.73591007
 20
78.9871314534
 30
0.0
 11
206.4294004701
 21
80.4293270579
 31
0.0
  0
LINE
  5
284
330
1F
100
AcDbEntity
  8
0
  6
Continuous
 62
     7
370
    15
100
AcDbLine
 10
206.4294004701
 20
80.4293270579
 30
0.0
 11
205.4726749833
 21
79.495533653
 31
0.0
  0
LINE
  5
285
330
1F
100
AcDbEntity
  8
0
  6
Continuous
 62
     7
370
    15
100
AcDbLine
 10
210.7791845832
 20
78.0533380485
 30
0.0
 11
205.4726749833
 21
79.495533653
 31
0.0
  0
LINE
  5
286
330
1F
100
AcDbEntity
  8
0
  6
Continuous
 62
     7
370
    15
100
AcDbLine
 10
214.6760910676
 20
81.8568382424
 30
0.0
 11
211.8759187966
 21
79.1237842627
 31
0.0
  0
LINE
  5
287
330
1F
100
AcDbEntity
  8
0
  6
Continuous
 62
     7
370
    15
100
AcDbLine
 10
214.6760910676
 20
81.8568382424
 30
0.0
 11
209.3695814677
 21
83.2990338469
 31
0.0
  0
LINE
  5
288
330
1F
100
AcDbEntity
  8
0
  6
Continuous
 62
     7
370
    15
100
AcDbLine
 10
209.3695814677
 20
83.2990338469
 30
0.0
 11
206.5694091967
 21
80.5659798672
 31
0.0
  0
LINE
  5
289
330
1F
100
AcDbEntity
  8
0
  6
Continuous
 62
     7
370
    15
100
AcDbLine
 10
211.8759187966
 20
79.1237842627
 30
0.0
 11
206.5694091967
 21
80.5659798672
 31
0.0
  0
LINE
  5
28A
330
1F
100
AcDbEntity
  8
0
  6
Continuous
 62
     7
370
    15
100
AcDbLine
 10
217.6162717174
 20
84.7265446921
 30
0.0
 11
214.8160996203
 21
81.993490882
 31
0.0
  0
LINE
  5
28B
330
1F
100
AcDbEntity
  8
0
  6
Continuous
 62
     7
370
    15
100
AcDbLine
 10
217.6162717174
 20
84.7265446921
 30
0.0
 11
212.3097621175
 21
86.1687402966
 31
0.0
  0
LINE
  5
28C
330
1F
100
AcDbEntity
  8
0
  6
Continuous
 62
     7
370
    15
100
AcDbLine
 10
212.3097621175
 20
86.1687402966
 30
0.0
 11
209.5095900204
 21
83.4356864865
 31
0.0
  0
LINE
  5
28D
330
1F
100
AcDbEntity
  8
0
  6
Continuous
 62
     7
370
    15
100
AcDbLine
 10
214.8160996203
 20
81.993490882
 30
0.0
 11
209.5095900204
 21
83.4356864865
 31
0.0
  0
LINE
  5
28E
330
1F
100
AcDbEntity
  8
0
  6
Continuous
 62
     7
370
    15
100
AcDbLine
 10
220.5564530626
 20
87.5962518205
 30
0.0
 11
217.7562806178
 21
84.863197671
 31
0.0
  0
LINE
  5
28F
330
1F
100
AcDbEntity
  8
0
  6
Continuous
 62
     7
370
    15
100
AcDbLine
 10
220.5564530626
 20
87.5962518205
 30
0.0
 11
215.2499434628
 21
89.038447425
 31
0.0
  0
LINE
  5
290
330
1F
100
AcDbEntity
  8
0
  6
Continuous
 62
     7
370
    15
100
AcDbLine
 10
215.2499434628
 20
89.038447425
 30
0.0
 11
212.4497710179
 21
86.3053932755
 31
0.0
  0
LINE
  5
291
330
1F
100
AcDbEntity
  8
0
  6
Continuous
 62
     7
370
    15
100
AcDbLine
 10
217.7562806178
 20
84.863197671
 30
0.0
 11
212.4497710179
 21
86.3053932755
 31
0.0
  0
LINE
  5
292
330
1F
100
AcDbEntity
  8
0
  6
Continuous
 62
     7
370
    15
100
AcDbLine
 10
223.4966344079
 20
90.4659589489
 30
0.0
 11
220.6964612676
 21
87.7329041207
 31
0.0
  0
LINE
  5
293
330
1F
100
AcDbEntity
  8
0
  6
Continuous
 62
     7
370
    15
100
AcDbLine
 10
223.4966344079
 20
90.4659589489
 30
0.0
 11
218.190124808
 21
91.9081545534
 31
0.0
  0
LINE
  5
294
330
1F
100
AcDbEntity
  8
0
  6
Continuous
 62
     7
370
    15
100
AcDbLine
 10
218.190124808
 20
91.9081545534
 30
0.0
 11
215.3899516678
 21
89.1750997252
 31
0.0
  0
LINE
  5
295
330
1F
100
AcDbEntity
  8
0
  6
Continuous
 62
     7
370
    15
100
AcDbLine
 10
220.6964612676
 20
87.7329041207
 30
0.0
 11
215.3899516678
 21
89.1750997252
 31
0.0
  0
LINE
  5
296
330
1F
100
AcDbEntity
  8
0
  6
Continuous
 62
     7
370
    15
100
AcDbLine
 10
226.4368150577
 20
93.3356653985
 30
0.0
 11
223.6366426129
 21
90.6026112491
 31
0.0
  0
LINE
  5
297
330
1F
100
AcDbEntity
  8
0
  6
Continuous
 62
     7
370
    15
100
AcDbLine
 10
226.4368150577
 20
93.3356653985
 30
0.0
 11
221.1303054579
 21
94.777861003
 31
0.0
  0
LINE
  5
298
330
1F
100
AcDbEntity
  8
0
  6
Continuous
 62
     7
370
    15
100
AcDbLine
 10
221.1303054579
 20
94.777861003
 30
0.0
 11
218.330133013
 21
92.0448068536
 31
0.0
  0
LINE
  5
299
330
1F
100
AcDbEntity
  8
0
  6
Continuous
 62
     7
370
    15
100
AcDbLine
 10
223.6366426129
 20
90.6026112491
 30
0.0
 11
218.330133013
 21
92.0448068536
 31
0.0
  0
LINE
  5
29A
330
1F
100
AcDbEntity
  8
0
  6
Continuous
 62
     7
370
    15
100
AcDbLine
 10
229.3769957076
 20
96.2053718482
 30
0.0
 11
226.5768232627
 21
93.4723176987
 31
0.0
  0
LINE
  5
29B
330
1F
100
AcDbEntity
  8
0
  6
Continuous
 62
     7
370
    15
100
AcDbLine
 10
229.3769957076
 20
96.2053718482
 30
0.0
 11
224.0704861077
 21
97.6475674527
 31
0.0
  0
LINE
  5
29C
330
1F
100
AcDbEntity
  8
0
  6
Continuous
 62
     7
370
    15
100
AcDbLine
 10
224.0704861077
 20
97.6475674527
 30
0.0
 11
221.2703136629
 21
94.9145133032
 31
0.0
  0
LINE
  5
29D
330
1F
100
AcDbEntity
  8
0
  6
Continuous
 62
     7
370
    15
100
AcDbLine
 10
226.5768232627
 20
93.4723176987
 30
0.0
 11
221.2703136629
 21
94.9145133032
 31
0.0
  0
LINE
  5
29E
330
1F
100
AcDbEntity
  8
0
  6
Continuous
 62
     7
370
    15
100
AcDbLine
 10
232.3171763574
 20
99.0750782978
 30
0.0
 11
229.5170039126
 21
96.3420241484
 31
0.0
  0
LINE
  5
29F
330
1F
100
AcDbEntity
  8
0
  6
Continuous
 62
     7
370
    15
100
AcDbLine
 10
232.3171763574
 20
99.0750782978
 30
0.0
 11
227.0106667575
 21
100.5172739023
 31
0.0
  0
LINE
  5
2A0
330
1F
100
AcDbEntity
  8
0
  6
Continuous
 62
     7
370
    15
100
AcDbLine
 10
227.0106667575
 20
100.5172739023
 30
0.0
 11
224.2104943127
 21
97.7842197529
 31
0.0
  0
LINE
  5
2A1
330
1F
100
AcDbEntity
  8
0
  6
Continuous
 62
     7
370
    15
100
AcDbLine
 10
229.5170039126
 20
96.3420241484
 30
0.0
 11
224.2104943127
 21
97.7842197529
 31
0.0
  0
LINE
  5
2A2
330
1F
100
AcDbEntity
  8
0
  6
Continuous
 62
     7
370
    15
100
AcDbLine
 10
235.2573570072
 20
101.9447847474
 30
0.0
 11
232.4571859533
 21
99.2117319555
 31
0.0
  0
LINE
  5
2A3
330
1F
100
AcDbEntity
  8
0
  6
Continuous
 62
     7
370
    15
100
AcDbLine
 10
235.2573570072
 20
101.9447847474
 30
0.0
 11
229.9508474074
 21
103.3869803519
 31
0.0
  0
LINE
  5
2A4
330
1F
100
AcDbEntity
  8
0
  6
Continuous
 62
     7
370
    15
100
AcDbLine
 10
229.9508474074
 20
103.3869803519
 30
0.0
 11
227.1506763534
 21
100.65392756
 31
0.0
  0
LINE
  5
2A5
330
1F
100
AcDbEntity
  8
0
  6
Continuous
 62
     7
370
    15
100
AcDbLine
 10
232.4571859533
 20
99.2117319555
 30
0.0
 11
227.1506763534
 21
100.65392756
 31
0.0
  0
LINE
  5
2A6
330
1F
100
AcDbEntity
  8
0
  6
Continuous
 62
     7
370
    15
100
AcDbLine
 10
240.8807582089
 20
100.5911700616
 30
0.0
 11
235.574249268
 21
102.033365487
 31
0.0
  0
LINE
  5
2A7
330
1F
100
AcDbEntity
  8
0
  6
Continuous
 62
     7
370
    15
100
AcDbLine
 10
241.8374839565
 20
101.524963721
 30
0.0
 11
240.8807582089
 21
100.5911700616
 31
0.0
  0
LINE
  5
2A8
330
1F
100
AcDbEntity
  8
0
  6
Continuous
 62
     7
370
    15
100
AcDbLine
 10
236.5309750156
 20
102.9671591464
 30
0.0
 11
241.8374839565
 21
101.524963721
 31
0.0
  0
LINE
  5
2A9
330
1F
100
AcDbEntity
  8
0
  6
Continuous
 62
     7
370
    15
100
AcDbLine
 10
236.5309750156
 20
102.9671591464
 30
0.0
 11
235.574249268
 21
102.033365487
 31
0.0
  0
LINE
  5
2AA
330
1F
100
AcDbEntity
  8
0
  6
Continuous
 62
     7
370
    15
100
AcDbLine
 10
217.2193016758
 20
77.4968631098
 30
0.0
 11
216.262576189
 21
76.5630697049
 31
0.0
  0
LINE
  5
2AB
330
1F
100
AcDbEntity
  8
0
  6
Continuous
 62
     7
370
    15
100
AcDbLine
 10
217.2193016758
 20
77.4968631098
 30
0.0
 11
211.9127927349
 21
78.9390585352
 31
0.0
  0
LINE
  5
2AC
330
1F
100
AcDbEntity
  8
0
  6
Continuous
 62
     7
370
    15
100
AcDbLine
 10
211.9127927349
 20
78.9390585352
 30
0.0
 11
210.9560672481
 21
78.0052651303
 31
0.0
  0
LINE
  5
2AD
330
1F
100
AcDbEntity
  8
0
  6
Continuous
 62
     7
370
    15
100
AcDbLine
 10
216.262576189
 20
76.5630697049
 30
0.0
 11
210.9560672481
 21
78.0052651303
 31
0.0
  0
LINE
  5
2AE
330
1F
100
AcDbEntity
  8
0
  6
Continuous
 62
     7
370
    15
100
AcDbLine
 10
220.1594826734
 20
80.3665698988
 30
0.0
 11
217.3593104024
 21
77.6335159191
 31
0.0
  0
LINE
  5
2AF
330
1F
100
AcDbEntity
  8
0
  6
Continuous
 62
     7
370
    15
100
AcDbLine
 10
220.1594826734
 20
80.3665698988
 30
0.0
 11
214.8529737325
 21
81.8087653242
 31
0.0
  0
LINE
  5
2B0
330
1F
100
AcDbEntity
  8
0
  6
Continuous
 62
     7
370
    15
100
AcDbLine
 10
214.8529737325
 20
81.8087653242
 30
0.0
 11
212.0528014615
 21
79.0757113445
 31
0.0
  0
LINE
  5
2B1
330
1F
100
AcDbEntity
  8
0
  6
Continuous
 62
     7
370
    15
100
AcDbLine
 10
217.3593104024
 20
77.6335159191
 30
0.0
 11
212.0528014615
 21
79.0757113445
 31
0.0
  0
LINE
  5
2B2
330
1F
100
AcDbEntity
  8
0
  6
Continuous
 62
     7
370
    15
100
AcDbLine
 10
223.0996633232
 20
83.2362763485
 30
0.0
 11
220.2994912261
 21
80.5032225384
 31
0.0
  0
LINE
  5
2B3
330
1F
100
AcDbEntity
  8
0
  6
Continuous
 62
     7
370
    15
100
AcDbLine
 10
223.0996633232
 20
83.2362763485
 30
0.0
 11
217.7931543823
 21
84.6784717739
 31
0.0
  0
LINE
  5
2B4
330
1F
100
AcDbEntity
  8
0
  6
Continuous
 62
     7
370
    15
100
AcDbLine
 10
217.7931543823
 20
84.6784717739
 30
0.0
 11
214.9929822852
 21
81.9454179638
 31
0.0
  0
LINE
  5
2B5
330
1F
100
AcDbEntity
  8
0
  6
Continuous
 62
     7
370
    15
100
AcDbLine
 10
220.2994912261
 20
80.5032225384
 30
0.0
 11
214.9929822852
 21
81.9454179638
 31
0.0
  0
LINE
  5
2B6
330
1F
100
AcDbEntity
  8
0
  6
Continuous
 62
     7
370
    15
100
AcDbLine
 10
226.0398446685
 20
86.1059834769
 30
0.0
 11
223.2396722236
 21
83.3729293274
 31
0.0
  0
LINE
  5
2B7
330
1F
100
AcDbEntity
  8
0
  6
Continuous
 62
     7
370
    15
100
AcDbLine
 10
226.0398446685
 20
86.1059834769
 30
0.0
 11
220.7333357276
 21
87.5481789023
 31
0.0
  0
LINE
  5
2B8
330
1F
100
AcDbEntity
  8
0
  6
Continuous
 62
     7
370
    15
100
AcDbLine
 10
220.7333357276
 20
87.5481789023
 30
0.0
 11
217.9331632827
 21
84.8151247529
 31
0.0
  0
LINE
  5
2B9
330
1F
100
AcDbEntity
  8
0
  6
Continuous
 62
     7
370
    15
100
AcDbLine
 10
223.2396722236
 20
83.3729293274
 30
0.0
 11
217.9331632827
 21
84.8151247529
 31
0.0
  0
LINE
  5
2BA
330
1F
100
AcDbEntity
  8
0
  6
Continuous
 62
     7
370
    15
100
AcDbLine
 10
228.9800260138
 20
88.9756906053
 30
0.0
 11
226.1798528735
 21
86.2426357771
 31
0.0
  0
LINE
  5
2BB
330
1F
100
AcDbEntity
  8
0
  6
Continuous
 62
     7
370
    15
100
AcDbLine
 10
228.9800260138
 20
88.9756906053
 30
0.0
 11
223.6735170728
 21
90.4178860307
 31
0.0
  0
LINE
  5
2BC
330
1F
100
AcDbEntity
  8
0
  6
Continuous
 62
     7
370
    15
100
AcDbLine
 10
223.6735170728
 20
90.4178860307
 30
0.0
 11
220.8733439325
 21
87.6848312025
 31
0.0
  0
LINE
  5
2BD
330
1F
100
AcDbEntity
  8
0
  6
Continuous
 62
     7
370
    15
100
AcDbLine
 10
226.1798528735
 20
86.2426357771
 30
0.0
 11
220.8733439325
 21
87.6848312025
 31
0.0
  0
LINE
  5
2BE
330
1F
100
AcDbEntity
  8
0
  6
Continuous
 62
     7
370
    15
100
AcDbLine
 10
231.9202066636
 20
91.8453970549
 30
0.0
 11
229.1200342187
 21
89.1123429055
 31
0.0
  0
LINE
  5
2BF
330
1F
100
AcDbEntity
  8
0
  6
Continuous
 62
     7
370
    15
100
AcDbLine
 10
231.9202066636
 20
91.8453970549
 30
0.0
 11
226.6136977227
 21
93.2875924803
 31
0.0
  0
LINE
  5
2C0
330
1F
100
AcDbEntity
  8
0
  6
Continuous
 62
     7
370
    15
100
AcDbLine
 10
226.6136977227
 20
93.2875924803
 30
0.0
 11
223.8135252778
 21
90.5545383309
 31
0.0
  0
LINE
  5
2C1
330
1F
100
AcDbEntity
  8
0
  6
Continuous
 62
     7
370
    15
100
AcDbLine
 10
229.1200342187
 20
89.1123429055
 30
0.0
 11
223.8135252778
 21
90.5545383309
 31
0.0
  0
LINE
  5
2C2
330
1F
100
AcDbEntity
  8
0
  6
Continuous
 62
     7
370
    15
100
AcDbLine
 10
234.8603873134
 20
94.7151035046
 30
0.0
 11
232.0602148686
 21
91.9820493551
 31
0.0
  0
LINE
  5
2C3
330
1F
100
AcDbEntity
  8
0
  6
Continuous
 62
     7
370
    15
100
AcDbLine
 10
234.8603873134
 20
94.7151035046
 30
0.0
 11
229.5538783725
 21
96.15729893
 31
0.0
  0
LINE
  5
2C4
330
1F
100
AcDbEntity
  8
0
  6
Continuous
 62
     7
370
    15
100
AcDbLine
 10
229.5538783725
 20
96.15729893
 30
0.0
 11
226.7537059276
 21
93.4242447805
 31
0.0
  0
LINE
  5
2C5
330
1F
100
AcDbEntity
  8
0
  6
Continuous
 62
     7
370
    15
100
AcDbLine
 10
232.0602148686
 20
91.9820493551
 30
0.0
 11
226.7537059276
 21
93.4242447805
 31
0.0
  0
LINE
  5
2C6
330
1F
100
AcDbEntity
  8
0
  6
Continuous
 62
     7
370
    15
100
AcDbLine
 10
237.8005679633
 20
97.5848099542
 30
0.0
 11
235.0003955184
 21
94.8517558048
 31
0.0
  0
LINE
  5
2C7
330
1F
100
AcDbEntity
  8
0
  6
Continuous
 62
     7
370
    15
100
AcDbLine
 10
237.8005679633
 20
97.5848099542
 30
0.0
 11
232.4940590223
 21
99.0270053796
 31
0.0
  0
LINE
  5
2C8
330
1F
100
AcDbEntity
  8
0
  6
Continuous
 62
     7
370
    15
100
AcDbLine
 10
232.4940590223
 20
99.0270053796
 30
0.0
 11
229.6938865775
 21
96.2939512302
 31
0.0
  0
LINE
  5
2C9
330
1F
100
AcDbEntity
  8
0
  6
Continuous
 62
     7
370
    15
100
AcDbLine
 10
235.0003955184
 20
94.8517558048
 30
0.0
 11
229.6938865775
 21
96.2939512302
 31
0.0
  0
LINE
  5
2CA
330
1F
100
AcDbEntity
  8
0
  6
Continuous
 62
     7
370
    15
100
AcDbLine
 10
240.7407486131
 20
100.4545164038
 30
0.0
 11
237.9405775591
 21
97.7214636119
 31
0.0
  0
LINE
  5
2CB
330
1F
100
AcDbEntity
  8
0
  6
Continuous
 62
     7
370
    15
100
AcDbLine
 10
240.7407486131
 20
100.4545164038
 30
0.0
 11
235.4342396722
 21
101.8967118293
 31
0.0
  0
LINE
  5
2CC
330
1F
100
AcDbEntity
  8
0
  6
Continuous
 62
     7
370
    15
100
AcDbLine
 10
235.4342396722
 20
101.8967118293
 30
0.0
 11
232.6340686182
 21
99.1636590374
 31
0.0
  0
LINE
  5
2CD
330
1F
100
AcDbEntity
  8
0
  6
Continuous
 62
     7
370
    15
100
AcDbLine
 10
237.9405775591
 20
97.7214636119
 30
0.0
 11
232.6340686182
 21
99.1636590374
 31
0.0
  0
LINE
  5
2CE
330
1F
100
AcDbEntity
  8
0
  6
Continuous
 62
     7
370
    15
100
AcDbLine
 10
242.0143679393
 20
101.4768904447
 30
0.0
 11
247.3208768802
 21
100.0346950192
 31
0.0
  0
LINE
  5
2CF
330
1F
100
AcDbEntity
  8
0
  6
Continuous
 62
     7
370
    15
100
AcDbLine
 10
242.0143679393
 20
101.4768904447
 30
0.0
 11
241.0576421917
 21
100.5430967852
 31
0.0
  0
LINE
  5
2D0
330
1F
100
AcDbEntity
  8
0
  6
Continuous
 62
     7
370
    15
100
AcDbLine
 10
246.3641511327
 20
99.1009013598
 30
0.0
 11
241.0576421917
 21
100.5430967852
 31
0.0
  0
LINE
  5
2D1
330
1F
100
AcDbEntity
  8
0
  6
Continuous
 62
     7
370
    15
100
AcDbLine
 10
247.3208768802
 20
100.0346950192
 30
0.0
 11
246.3641511327
 21
99.1009013598
 31
0.0
  0
LINE
  5
2D2
330
1F
100
AcDbEntity
  8
0
  6
Continuous
 62
     7
370
    15
100
AcDbLine
 10
246.2241415368
 20
98.9642477021
 30
0.0
 11
240.9176325959
 21
100.4064431275
 31
0.0
  0
LINE
  5
2D3
330
1F
100
AcDbEntity
  8
0
  6
Continuous
 62
     7
370
    15
100
AcDbLine
 10
240.9176325959
 20
100.4064431275
 30
0.0
 11
238.1174615419
 21
97.6733903356
 31
0.0
  0
LINE
  5
2D4
330
1F
100
AcDbEntity
  8
0
  6
Continuous
 62
     7
370
    15
100
AcDbLine
 10
243.4239704828
 20
96.2311949102
 30
0.0
 11
238.1174615419
 21
97.6733903356
 31
0.0
  0
LINE
  5
2D5
330
1F
100
AcDbEntity
  8
0
  6
Continuous
 62
     7
370
    15
100
AcDbLine
 10
246.2241415368
 20
98.9642477021
 30
0.0
 11
243.4239704828
 21
96.2311949102
 31
0.0
  0
LINE
  5
2D6
330
1F
100
AcDbEntity
  8
0
  6
Continuous
 62
     7
370
    15
100
AcDbLine
 10
243.283960887
 20
96.0945412524
 30
0.0
 11
237.9774519461
 21
97.5367366778
 31
0.0
  0
LINE
  5
2D7
330
1F
100
AcDbEntity
  8
0
  6
Continuous
 62
     7
370
    15
100
AcDbLine
 10
237.9774519461
 20
97.5367366778
 30
0.0
 11
235.1772795012
 21
94.8036825284
 31
0.0
  0
LINE
  5
2D8
330
1F
100
AcDbEntity
  8
0
  6
Continuous
 62
     7
370
    15
100
AcDbLine
 10
240.4837884421
 20
93.361487103
 30
0.0
 11
235.1772795012
 21
94.8036825284
 31
0.0
  0
LINE
  5
2D9
330
1F
100
AcDbEntity
  8
0
  6
Continuous
 62
     7
370
    15
100
AcDbLine
 10
243.283960887
 20
96.0945412524
 30
0.0
 11
240.4837884421
 21
93.361487103
 31
0.0
  0
LINE
  5
2DA
330
1F
100
AcDbEntity
  8
0
  6
Continuous
 62
     7
370
    15
100
AcDbLine
 10
240.3437802371
 20
93.2248348028
 30
0.0
 11
235.0372712962
 21
94.6670302282
 31
0.0
  0
LINE
  5
2DB
330
1F
100
AcDbEntity
  8
0
  6
Continuous
 62
     7
370
    15
100
AcDbLine
 10
235.0372712962
 20
94.6670302282
 30
0.0
 11
232.2370988514
 21
91.9339760788
 31
0.0
  0
LINE
  5
2DC
330
1F
100
AcDbEntity
  8
0
  6
Continuous
 62
     7
370
    15
100
AcDbLine
 10
237.5436077923
 20
90.4917806534
 30
0.0
 11
232.2370988514
 21
91.9339760788
 31
0.0
  0
LINE
  5
2DD
330
1F
100
AcDbEntity
  8
0
  6
Continuous
 62
     7
370
    15
100
AcDbLine
 10
240.3437802371
 20
93.2248348028
 30
0.0
 11
237.5436077923
 21
90.4917806534
 31
0.0
  0
LINE
  5
2DE
330
1F
100
AcDbEntity
  8
0
  6
Continuous
 62
     7
370
    15
100
AcDbLine
 10
237.4035995873
 20
90.3551283531
 30
0.0
 11
232.0970906464
 21
91.7973237786
 31
0.0
  0
LINE
  5
2DF
330
1F
100
AcDbEntity
  8
0
  6
Continuous
 62
     7
370
    15
100
AcDbLine
 10
232.0970906464
 20
91.7973237786
 30
0.0
 11
229.2969182015
 21
89.0642696291
 31
0.0
  0
LINE
  5
2E0
330
1F
100
AcDbEntity
  8
0
  6
Continuous
 62
     7
370
    15
100
AcDbLine
 10
234.6034271425
 20
87.6220742037
 30
0.0
 11
229.2969182015
 21
89.0642696291
 31
0.0
  0
LINE
  5
2E1
330
1F
100
AcDbEntity
  8
0
  6
Continuous
 62
     7
370
    15
100
AcDbLine
 10
237.4035995873
 20
90.3551283531
 30
0.0
 11
234.6034271425
 21
87.6220742037
 31
0.0
  0
LINE
  5
2E2
330
1F
100
AcDbEntity
  8
0
  6
Continuous
 62
     7
370
    15
100
AcDbLine
 10
234.4634189375
 20
87.4854219035
 30
0.0
 11
229.1569099966
 21
88.9276173289
 31
0.0
  0
LINE
  5
2E3
330
1F
100
AcDbEntity
  8
0
  6
Continuous
 62
     7
370
    15
100
AcDbLine
 10
229.1569099966
 20
88.9276173289
 30
0.0
 11
226.3567368563
 21
86.1945625007
 31
0.0
  0
LINE
  5
2E4
330
1F
100
AcDbEntity
  8
0
  6
Continuous
 62
     7
370
    15
100
AcDbLine
 10
231.6632457972
 20
84.7523670753
 30
0.0
 11
226.3567368563
 21
86.1945625007
 31
0.0
  0
LINE
  5
2E5
330
1F
100
AcDbEntity
  8
0
  6
Continuous
 62
     7
370
    15
100
AcDbLine
 10
234.4634189375
 20
87.4854219035
 30
0.0
 11
231.6632457972
 21
84.7523670753
 31
0.0
  0
LINE
  5
2E6
330
1F
100
AcDbEntity
  8
0
  6
Continuous
 62
     7
370
    15
100
AcDbLine
 10
231.5232375922
 20
84.6157147751
 30
0.0
 11
226.2167286513
 21
86.0579102005
 31
0.0
  0
LINE
  5
2E7
330
1F
100
AcDbEntity
  8
0
  6
Continuous
 62
     7
370
    15
100
AcDbLine
 10
226.2167286513
 20
86.0579102005
 30
0.0
 11
223.4165562064
 21
83.3248560511
 31
0.0
  0
LINE
  5
2E8
330
1F
100
AcDbEntity
  8
0
  6
Continuous
 62
     7
370
    15
100
AcDbLine
 10
228.7230651474
 20
81.8826606257
 30
0.0
 11
223.4165562064
 21
83.3248560511
 31
0.0
  0
LINE
  5
2E9
330
1F
100
AcDbEntity
  8
0
  6
Continuous
 62
     7
370
    15
100
AcDbLine
 10
231.5232375922
 20
84.6157147751
 30
0.0
 11
228.7230651474
 21
81.8826606257
 31
0.0
  0
LINE
  5
2EA
330
1F
100
AcDbEntity
  8
0
  6
Continuous
 62
     7
370
    15
100
AcDbLine
 10
228.583056247
 20
81.7460076467
 30
0.0
 11
223.276547306
 21
83.1882030721
 31
0.0
  0
LINE
  5
2EB
330
1F
100
AcDbEntity
  8
0
  6
Continuous
 62
     7
370
    15
100
AcDbLine
 10
223.276547306
 20
83.1882030721
 30
0.0
 11
220.4763752089
 21
80.4551492621
 31
0.0
  0
LINE
  5
2EC
330
1F
100
AcDbEntity
  8
0
  6
Continuous
 62
     7
370
    15
100
AcDbLine
 10
225.7828841498
 20
79.0129538367
 30
0.0
 11
220.4763752089
 21
80.4551492621
 31
0.0
  0
LINE
  5
2ED
330
1F
100
AcDbEntity
  8
0
  6
Continuous
 62
     7
370
    15
100
AcDbLine
 10
228.583056247
 20
81.7460076467
 30
0.0
 11
225.7828841498
 21
79.0129538367
 31
0.0
  0
LINE
  5
2EE
330
1F
100
AcDbEntity
  8
0
  6
Continuous
 62
     7
370
    15
100
AcDbLine
 10
225.6428755971
 20
78.8763011971
 30
0.0
 11
220.3363666562
 21
80.3184966225
 31
0.0
  0
LINE
  5
2EF
330
1F
100
AcDbEntity
  8
0
  6
Continuous
 62
     7
370
    15
100
AcDbLine
 10
220.3363666562
 20
80.3184966225
 30
0.0
 11
217.5361943852
 21
77.5854426427
 31
0.0
  0
LINE
  5
2F0
330
1F
100
AcDbEntity
  8
0
  6
Continuous
 62
     7
370
    15
100
AcDbLine
 10
222.8427033261
 20
76.1432472173
 30
0.0
 11
217.5361943852
 21
77.5854426427
 31
0.0
  0
LINE
  5
2F1
330
1F
100
AcDbEntity
  8
0
  6
Continuous
 62
     7
370
    15
100
AcDbLine
 10
225.6428755971
 20
78.8763011971
 30
0.0
 11
222.8427033261
 21
76.1432472173
 31
0.0
  0
LINE
  5
2F2
330
1F
100
AcDbEntity
  8
0
  6
Continuous
 62
     7
370
    15
100
AcDbLine
 10
222.7026945996
 20
76.006594408
 30
0.0
 11
217.3961856586
 21
77.4487898334
 31
0.0
  0
LINE
  5
2F3
330
1F
100
AcDbEntity
  8
0
  6
Continuous
 62
     7
370
    15
100
AcDbLine
 10
217.3961856586
 20
77.4487898334
 30
0.0
 11
216.4394601718
 21
76.5149964286
 31
0.0
  0
LINE
  5
2F4
330
1F
100
AcDbEntity
  8
0
  6
Continuous
 62
     7
370
    15
100
AcDbLine
 10
221.7459691128
 20
75.0728010031
 30
0.0
 11
216.4394601718
 21
76.5149964286
 31
0.0
  0
LINE
  5
2F5
330
1F
100
AcDbEntity
  8
0
  6
Continuous
 62
     7
370
    15
100
AcDbLine
 10
222.7026945996
 20
76.006594408
 30
0.0
 11
221.7459691128
 21
75.0728010031
 31
0.0
  0
LINE
  5
2F6
330
1F
100
AcDbEntity
  8
0
  6
Continuous
 62
     7
370
    15
100
AcDbLine
 10
251.7075344605
 20
97.4739790003
 30
0.0
 11
246.4010255196
 21
98.9161744257
 31
0.0
  0
LINE
  5
2F7
330
1F
100
AcDbEntity
  8
0
  6
Continuous
 62
     7
370
    15
100
AcDbLine
 10
246.4010255196
 20
98.9161744257
 30
0.0
 11
243.6008544656
 21
96.1831216338
 31
0.0
  0
LINE
  5
2F8
330
1F
100
AcDbEntity
  8
0
  6
Continuous
 62
     7
370
    15
100
AcDbLine
 10
248.9073634066
 20
94.7409262084
 30
0.0
 11
243.6008544656
 21
96.1831216338
 31
0.0
  0
LINE
  5
2F9
330
1F
100
AcDbEntity
  8
0
  6
Continuous
 62
     7
370
    15
100
AcDbLine
 10
251.7075344605
 20
97.4739790003
 30
0.0
 11
248.9073634066
 21
94.7409262084
 31
0.0
  0
LINE
  5
2FA
330
1F
100
AcDbEntity
  8
0
  6
Continuous
 62
     7
370
    15
100
AcDbLine
 10
248.7673538107
 20
94.6042725507
 30
0.0
 11
243.4608448698
 21
96.0464679761
 31
0.0
  0
LINE
  5
2FB
330
1F
100
AcDbEntity
  8
0
  6
Continuous
 62
     7
370
    15
100
AcDbLine
 10
243.4608448698
 20
96.0464679761
 30
0.0
 11
240.6606724249
 21
93.3134138266
 31
0.0
  0
LINE
  5
2FC
330
1F
100
AcDbEntity
  8
0
  6
Continuous
 62
     7
370
    15
100
AcDbLine
 10
245.9671813659
 20
91.8712184012
 30
0.0
 11
240.6606724249
 21
93.3134138266
 31
0.0
  0
LINE
  5
2FD
330
1F
100
AcDbEntity
  8
0
  6
Continuous
 62
     7
370
    15
100
AcDbLine
 10
248.7673538107
 20
94.6042725507
 30
0.0
 11
245.9671813659
 21
91.8712184012
 31
0.0
  0
LINE
  5
2FE
330
1F
100
AcDbEntity
  8
0
  6
Continuous
 62
     7
370
    15
100
AcDbLine
 10
245.8271731609
 20
91.734566101
 30
0.0
 11
240.5206642199
 21
93.1767615264
 31
0.0
  0
LINE
  5
2FF
330
1F
100
AcDbEntity
  8
0
  6
Continuous
 62
     7
370
    15
100
AcDbLine
 10
240.5206642199
 20
93.1767615264
 30
0.0
 11
237.7204917751
 21
90.443707377
 31
0.0
  0
LINE
  5
300
330
1F
100
AcDbEntity
  8
0
  6
Continuous
 62
     7
370
    15
100
AcDbLine
 10
243.027000716
 20
89.0015119516
 30
0.0
 11
237.7204917751
 21
90.443707377
 31
0.0
  0
LINE
  5
301
330
1F
100
AcDbEntity
  8
0
  6
Continuous
 62
     7
370
    15
100
AcDbLine
 10
245.8271731609
 20
91.734566101
 30
0.0
 11
243.027000716
 21
89.0015119516
 31
0.0
  0
LINE
  5
302
330
1F
100
AcDbEntity
  8
0
  6
Continuous
 62
     7
370
    15
100
AcDbLine
 10
242.886992511
 20
88.8648596514
 30
0.0
 11
237.5804835701
 21
90.3070550768
 31
0.0
  0
LINE
  5
303
330
1F
100
AcDbEntity
  8
0
  6
Continuous
 62
     7
370
    15
100
AcDbLine
 10
237.5804835701
 20
90.3070550768
 30
0.0
 11
234.7803111253
 21
87.5740009274
 31
0.0
  0
LINE
  5
304
330
1F
100
AcDbEntity
  8
0
  6
Continuous
 62
     7
370
    15
100
AcDbLine
 10
240.0868200662
 20
86.131805502
 30
0.0
 11
234.7803111253
 21
87.5740009274
 31
0.0
  0
LINE
  5
305
330
1F
100
AcDbEntity
  8
0
  6
Continuous
 62
     7
370
    15
100
AcDbLine
 10
242.886992511
 20
88.8648596514
 30
0.0
 11
240.0868200662
 21
86.131805502
 31
0.0
  0
LINE
  5
306
330
1F
100
AcDbEntity
  8
0
  6
Continuous
 62
     7
370
    15
100
AcDbLine
 10
239.9468118612
 20
85.9951532017
 30
0.0
 11
234.6403029203
 21
87.4373486271
 31
0.0
  0
LINE
  5
307
330
1F
100
AcDbEntity
  8
0
  6
Continuous
 62
     7
370
    15
100
AcDbLine
 10
234.6403029203
 20
87.4373486271
 30
0.0
 11
231.84012978
 21
84.704293799
 31
0.0
  0
LINE
  5
308
330
1F
100
AcDbEntity
  8
0
  6
Continuous
 62
     7
370
    15
100
AcDbLine
 10
237.1466387209
 20
83.2620983735
 30
0.0
 11
231.84012978
 21
84.704293799
 31
0.0
  0
LINE
  5
309
330
1F
100
AcDbEntity
  8
0
  6
Continuous
 62
     7
370
    15
100
AcDbLine
 10
239.9468118612
 20
85.9951532017
 30
0.0
 11
237.1466387209
 21
83.2620983735
 31
0.0
  0
LINE
  5
30A
330
1F
100
AcDbEntity
  8
0
  6
Continuous
 62
     7
370
    15
100
AcDbLine
 10
237.0066305159
 20
83.1254460733
 30
0.0
 11
231.700121575
 21
84.5676414987
 31
0.0
  0
LINE
  5
30B
330
1F
100
AcDbEntity
  8
0
  6
Continuous
 62
     7
370
    15
100
AcDbLine
 10
231.700121575
 20
84.5676414987
 30
0.0
 11
228.8999491302
 21
81.8345873493
 31
0.0
  0
LINE
  5
30C
330
1F
100
AcDbEntity
  8
0
  6
Continuous
 62
     7
370
    15
100
AcDbLine
 10
234.2064580711
 20
80.3923919239
 30
0.0
 11
228.8999491302
 21
81.8345873493
 31
0.0
  0
LINE
  5
30D
330
1F
100
AcDbEntity
  8
0
  6
Continuous
 62
     7
370
    15
100
AcDbLine
 10
237.0066305159
 20
83.1254460733
 30
0.0
 11
234.2064580711
 21
80.3923919239
 31
0.0
  0
LINE
  5
30E
330
1F
100
AcDbEntity
  8
0
  6
Continuous
 62
     7
370
    15
100
AcDbLine
 10
234.0664491707
 20
80.2557389449
 30
0.0
 11
228.7599402298
 21
81.6979343703
 31
0.0
  0
LINE
  5
30F
330
1F
100
AcDbEntity
  8
0
  6
Continuous
 62
     7
370
    15
100
AcDbLine
 10
228.7599402298
 20
81.6979343703
 30
0.0
 11
225.9597681326
 21
78.9648805603
 31
0.0
  0
LINE
  5
310
330
1F
100
AcDbEntity
  8
0
  6
Continuous
 62
     7
370
    15
100
AcDbLine
 10
231.2662770735
 20
77.5226851349
 30
0.0
 11
225.9597681326
 21
78.9648805603
 31
0.0
  0
LINE
  5
311
330
1F
100
AcDbEntity
  8
0
  6
Continuous
 62
     7
370
    15
100
AcDbLine
 10
234.0664491707
 20
80.2557389449
 30
0.0
 11
231.2662770735
 21
77.5226851349
 31
0.0
  0
LINE
  5
312
330
1F
100
AcDbEntity
  8
0
  6
Continuous
 62
     7
370
    15
100
AcDbLine
 10
231.1262685208
 20
77.3860324953
 30
0.0
 11
225.8197595799
 21
78.8282279207
 31
0.0
  0
LINE
  5
313
330
1F
100
AcDbEntity
  8
0
  6
Continuous
 62
     7
370
    15
100
AcDbLine
 10
225.8197595799
 20
78.8282279207
 30
0.0
 11
223.0195873089
 21
76.095173941
 31
0.0
  0
LINE
  5
314
330
1F
100
AcDbEntity
  8
0
  6
Continuous
 62
     7
370
    15
100
AcDbLine
 10
228.3260962499
 20
74.6529785155
 30
0.0
 11
223.0195873089
 21
76.095173941
 31
0.0
  0
LINE
  5
315
330
1F
100
AcDbEntity
  8
0
  6
Continuous
 62
     7
370
    15
100
AcDbLine
 10
231.1262685208
 20
77.3860324953
 30
0.0
 11
228.3260962499
 21
74.6529785155
 31
0.0
  0
LINE
  5
316
330
1F
100
AcDbEntity
  8
0
  6
Continuous
 62
     7
370
    15
100
AcDbLine
 10
228.1860875233
 20
74.5163257063
 30
0.0
 11
222.8795785824
 21
75.9585211317
 31
0.0
  0
LINE
  5
317
330
1F
100
AcDbEntity
  8
0
  6
Continuous
 62
     7
370
    15
100
AcDbLine
 10
222.8795785824
 20
75.9585211317
 30
0.0
 11
221.9228530956
 21
75.0247277268
 31
0.0
  0
LINE
  5
318
330
1F
100
AcDbEntity
  8
0
  6
Continuous
 62
     7
370
    15
100
AcDbLine
 10
227.2293620365
 20
73.5825323014
 30
0.0
 11
221.9228530956
 21
75.0247277268
 31
0.0
  0
LINE
  5
319
330
1F
100
AcDbEntity
  8
0
  6
Continuous
 62
     7
370
    15
100
AcDbLine
 10
228.1860875233
 20
74.5163257063
 30
0.0
 11
227.2293620365
 21
73.5825323014
 31
0.0
  0
LINE
  5
31A
330
1F
100
AcDbEntity
  8
0
  6
Continuous
 62
     7
370
    15
100
AcDbLine
 10
247.497760863
 20
99.9866217429
 30
0.0
 11
246.5410351155
 21
99.0528280835
 31
0.0
  0
LINE
  5
31B
330
1F
100
AcDbEntity
  8
0
  6
Continuous
 62
     7
370
    15
100
AcDbLine
 10
251.8475440564
 20
97.610632658
 30
0.0
 11
246.5410351155
 21
99.0528280835
 31
0.0
  0
LINE
  5
31C
330
1F
100
AcDbEntity
  8
0
  6
Continuous
 62
     7
370
    15
100
AcDbLine
 10
252.804269804
 20
98.5444263175
 30
0.0
 11
251.8475440564
 21
97.610632658
 31
0.0
  0
LINE
  5
31D
330
1F
100
AcDbEntity
  8
0
  6
Continuous
 62
     7
370
    15
100
AcDbLine
 10
247.497760863
 20
99.9866217429
 30
0.0
 11
252.804269804
 21
98.5444263175
 31
0.0
  0
LINE
  5
31E
330
1F
100
AcDbEntity
  8
0
  6
Continuous
 62
     7
370
    15
100
AcDbLine
 10
252.981151151
 20
98.4963537575
 30
0.0
 11
252.0244254034
 21
97.562560098
 31
0.0
  0
LINE
  5
31F
330
1F
100
AcDbEntity
  8
0
  6
Continuous
 62
     7
370
    15
100
AcDbLine
 10
257.3309343443
 20
96.1203646726
 30
0.0
 11
252.0244254034
 21
97.562560098
 31
0.0
  0
LINE
  5
320
330
1F
100
AcDbEntity
  8
0
  6
Continuous
 62
     7
370
    15
100
AcDbLine
 10
258.2876600919
 20
97.054158332
 30
0.0
 11
257.3309343443
 21
96.1203646726
 31
0.0
  0
LINE
  5
321
330
1F
100
AcDbEntity
  8
0
  6
Continuous
 62
     7
370
    15
100
AcDbLine
 10
252.981151151
 20
98.4963537575
 30
0.0
 11
258.2876600919
 21
97.054158332
 31
0.0
  0
LINE
  5
322
330
1F
100
AcDbEntity
  8
0
  6
Continuous
 62
     7
370
    15
100
AcDbLine
 10
257.1909247485
 20
95.9837110149
 30
0.0
 11
251.8844158076
 21
97.4259064403
 31
0.0
  0
LINE
  5
323
330
1F
100
AcDbEntity
  8
0
  6
Continuous
 62
     7
370
    15
100
AcDbLine
 10
251.8844158076
 20
97.4259064403
 30
0.0
 11
249.0842447536
 21
94.6928536484
 31
0.0
  0
LINE
  5
324
330
1F
100
AcDbEntity
  8
0
  6
Continuous
 62
     7
370
    15
100
AcDbLine
 10
254.3907536945
 20
93.250658223
 30
0.0
 11
249.0842447536
 21
94.6928536484
 31
0.0
  0
LINE
  5
325
330
1F
100
AcDbEntity
  8
0
  6
Continuous
 62
     7
370
    15
100
AcDbLine
 10
257.1909247485
 20
95.9837110149
 30
0.0
 11
254.3907536945
 21
93.250658223
 31
0.0
  0
LINE
  5
326
330
1F
100
AcDbEntity
  8
0
  6
Continuous
 62
     7
370
    15
100
AcDbLine
 10
254.2507440987
 20
93.1140045652
 30
0.0
 11
248.9442351577
 21
94.5561999906
 31
0.0
  0
LINE
  5
327
330
1F
100
AcDbEntity
  8
0
  6
Continuous
 62
     7
370
    15
100
AcDbLine
 10
248.9442351577
 20
94.5561999906
 30
0.0
 11
246.1440627129
 21
91.8231458412
 31
0.0
  0
LINE
  5
328
330
1F
100
AcDbEntity
  8
0
  6
Continuous
 62
     7
370
    15
100
AcDbLine
 10
251.4505716538
 20
90.3809504158
 30
0.0
 11
246.1440627129
 21
91.8231458412
 31
0.0
  0
LINE
  5
329
330
1F
100
AcDbEntity
  8
0
  6
Continuous
 62
     7
370
    15
100
AcDbLine
 10
254.2507440987
 20
93.1140045652
 30
0.0
 11
251.4505716538
 21
90.3809504158
 31
0.0
  0
LINE
  5
32A
330
1F
100
AcDbEntity
  8
0
  6
Continuous
 62
     7
370
    15
100
AcDbLine
 10
251.3105634488
 20
90.2442981156
 30
0.0
 11
246.0040545079
 21
91.686493541
 31
0.0
  0
LINE
  5
32B
330
1F
100
AcDbEntity
  8
0
  6
Continuous
 62
     7
370
    15
100
AcDbLine
 10
246.0040545079
 20
91.686493541
 30
0.0
 11
243.2038820631
 21
88.9534393916
 31
0.0
  0
LINE
  5
32C
330
1F
100
AcDbEntity
  8
0
  6
Continuous
 62
     7
370
    15
100
AcDbLine
 10
248.510391004
 20
87.5112439662
 30
0.0
 11
243.2038820631
 21
88.9534393916
 31
0.0
  0
LINE
  5
32D
330
1F
100
AcDbEntity
  8
0
  6
Continuous
 62
     7
370
    15
100
AcDbLine
 10
251.3105634488
 20
90.2442981156
 30
0.0
 11
248.510391004
 21
87.5112439662
 31
0.0
  0
LINE
  5
32E
330
1F
100
AcDbEntity
  8
0
  6
Continuous
 62
     7
370
    15
100
AcDbLine
 10
231.3031498679
 20
77.3379599353
 30
0.0
 11
228.5029775969
 21
74.6049059555
 31
0.0
  0
LINE
  5
32F
330
1F
100
AcDbEntity
  8
0
  6
Continuous
 62
     7
370
    15
100
AcDbLine
 10
233.8094865378
 20
73.1627105301
 30
0.0
 11
228.5029775969
 21
74.6049059555
 31
0.0
  0
LINE
  5
330
330
1F
100
AcDbEntity
  8
0
  6
Continuous
 62
     7
370
    15
100
AcDbLine
 10
236.6096588088
 20
75.8957645099
 30
0.0
 11
233.8094865378
 21
73.1627105301
 31
0.0
  0
LINE
  5
331
330
1F
100
AcDbEntity
  8
0
  6
Continuous
 62
     7
370
    15
100
AcDbLine
 10
236.6096588088
 20
75.8957645099
 30
0.0
 11
231.3031498679
 21
77.3379599353
 31
0.0
  0
LINE
  5
332
330
1F
100
AcDbEntity
  8
0
  6
Continuous
 62
     7
370
    15
100
AcDbLine
 10
234.2433305177
 20
80.2076663849
 30
0.0
 11
231.4431584206
 21
77.4746125749
 31
0.0
  0
LINE
  5
333
330
1F
100
AcDbEntity
  8
0
  6
Continuous
 62
     7
370
    15
100
AcDbLine
 10
236.7496673615
 20
76.0324171495
 30
0.0
 11
231.4431584206
 21
77.4746125749
 31
0.0
  0
LINE
  5
334
330
1F
100
AcDbEntity
  8
0
  6
Continuous
 62
     7
370
    15
100
AcDbLine
 10
239.5498394586
 20
78.7654709595
 30
0.0
 11
236.7496673615
 21
76.0324171495
 31
0.0
  0
LINE
  5
335
330
1F
100
AcDbEntity
  8
0
  6
Continuous
 62
     7
370
    15
100
AcDbLine
 10
239.5498394586
 20
78.7654709595
 30
0.0
 11
234.2433305177
 21
80.2076663849
 31
0.0
  0
LINE
  5
336
330
1F
100
AcDbEntity
  8
0
  6
Continuous
 62
     7
370
    15
100
AcDbLine
 10
237.183511863
 20
83.0773735133
 30
0.0
 11
234.3833394181
 21
80.3443193639
 31
0.0
  0
LINE
  5
337
330
1F
100
AcDbEntity
  8
0
  6
Continuous
 62
     7
370
    15
100
AcDbLine
 10
239.689848359
 20
78.9021239385
 30
0.0
 11
234.3833394181
 21
80.3443193639
 31
0.0
  0
LINE
  5
338
330
1F
100
AcDbEntity
  8
0
  6
Continuous
 62
     7
370
    15
100
AcDbLine
 10
242.4900208039
 20
81.6351780879
 30
0.0
 11
239.689848359
 21
78.9021239385
 31
0.0
  0
LINE
  5
339
330
1F
100
AcDbEntity
  8
0
  6
Continuous
 62
     7
370
    15
100
AcDbLine
 10
242.4900208039
 20
81.6351780879
 30
0.0
 11
237.183511863
 21
83.0773735133
 31
0.0
  0
LINE
  5
33A
330
1F
100
AcDbEntity
  8
0
  6
Continuous
 62
     7
370
    15
100
AcDbLine
 10
240.1236932082
 20
85.9470806417
 30
0.0
 11
237.323520068
 21
83.2140258135
 31
0.0
  0
LINE
  5
33B
330
1F
100
AcDbEntity
  8
0
  6
Continuous
 62
     7
370
    15
100
AcDbLine
 10
242.6300290089
 20
81.7718303881
 30
0.0
 11
237.323520068
 21
83.2140258135
 31
0.0
  0
LINE
  5
33C
330
1F
100
AcDbEntity
  8
0
  6
Continuous
 62
     7
370
    15
100
AcDbLine
 10
245.4302021492
 20
84.5048852163
 30
0.0
 11
242.6300290089
 21
81.7718303881
 31
0.0
  0
LINE
  5
33D
330
1F
100
AcDbEntity
  8
0
  6
Continuous
 62
     7
370
    15
100
AcDbLine
 10
245.4302021492
 20
84.5048852163
 30
0.0
 11
240.1236932082
 21
85.9470806417
 31
0.0
  0
LINE
  5
33E
330
1F
100
AcDbEntity
  8
0
  6
Continuous
 62
     7
370
    15
100
AcDbLine
 10
248.370382799
 20
87.374591666
 30
0.0
 11
243.0638738581
 21
88.8167870914
 31
0.0
  0
LINE
  5
33F
330
1F
100
AcDbEntity
  8
0
  6
Continuous
 62
     7
370
    15
100
AcDbLine
 10
243.0638738581
 20
88.8167870914
 30
0.0
 11
240.2637014132
 21
86.0837329419
 31
0.0
  0
LINE
  5
340
330
1F
100
AcDbEntity
  8
0
  6
Continuous
 62
     7
370
    15
100
AcDbLine
 10
245.5702103541
 20
84.6415375165
 30
0.0
 11
240.2637014132
 21
86.0837329419
 31
0.0
  0
LINE
  5
341
330
1F
100
AcDbEntity
  8
0
  6
Continuous
 62
     7
370
    15
100
AcDbLine
 10
248.370382799
 20
87.374591666
 30
0.0
 11
245.5702103541
 21
84.6415375165
 31
0.0
  0
LINE
  5
342
330
1F
100
AcDbEntity
  8
0
  6
Continuous
 62
     7
370
    15
100
AcDbLine
 10
233.6694778113
 20
73.0260577208
 30
0.0
 11
228.3629688703
 21
74.4682531463
 31
0.0
  0
LINE
  5
343
330
1F
100
AcDbEntity
  8
0
  6
Continuous
 62
     7
370
    15
100
AcDbLine
 10
228.3629688703
 20
74.4682531463
 30
0.0
 11
227.4062433835
 21
73.5344597414
 31
0.0
  0
LINE
  5
344
330
1F
100
AcDbEntity
  8
0
  6
Continuous
 62
     7
370
    15
100
AcDbLine
 10
232.7127523244
 20
72.0922643159
 30
0.0
 11
227.4062433835
 21
73.5344597414
 31
0.0
  0
LINE
  5
345
330
1F
100
AcDbEntity
  8
0
  6
Continuous
 62
     7
370
    15
100
AcDbLine
 10
233.6694778113
 20
73.0260577208
 30
0.0
 11
232.7127523244
 21
72.0922643159
 31
0.0
  0
LINE
  5
346
330
1F
100
AcDbEntity
  8
0
  6
Continuous
 62
     7
370
    15
100
AcDbLine
 10
258.4645440747
 20
97.0060850557
 30
0.0
 11
257.5078183271
 21
96.0722913963
 31
0.0
  0
LINE
  5
347
330
1F
100
AcDbEntity
  8
0
  6
Continuous
 62
     7
370
    15
100
AcDbLine
 10
262.8143272681
 20
94.6300959708
 30
0.0
 11
257.5078183271
 21
96.0722913963
 31
0.0
  0
LINE
  5
348
330
1F
100
AcDbEntity
  8
0
  6
Continuous
 62
     7
370
    15
100
AcDbLine
 10
263.7710530157
 20
95.5638896303
 30
0.0
 11
262.8143272681
 21
94.6300959708
 31
0.0
  0
LINE
  5
349
330
1F
100
AcDbEntity
  8
0
  6
Continuous
 62
     7
370
    15
100
AcDbLine
 10
258.4645440747
 20
97.0060850557
 30
0.0
 11
263.7710530157
 21
95.5638896303
 31
0.0
  0
LINE
  5
34A
330
1F
100
AcDbEntity
  8
0
  6
Continuous
 62
     7
370
    15
100
AcDbLine
 10
262.6743176722
 20
94.4934423131
 30
0.0
 11
257.3678087313
 21
95.9356377385
 31
0.0
  0
LINE
  5
34B
330
1F
100
AcDbEntity
  8
0
  6
Continuous
 62
     7
370
    15
100
AcDbLine
 10
257.3678087313
 20
95.9356377385
 30
0.0
 11
254.5676376773
 21
93.2025849466
 31
0.0
  0
LINE
  5
34C
330
1F
100
AcDbEntity
  8
0
  6
Continuous
 62
     7
370
    15
100
AcDbLine
 10
259.8741466182
 20
91.7603895212
 30
0.0
 11
254.5676376773
 21
93.2025849466
 31
0.0
  0
LINE
  5
34D
330
1F
100
AcDbEntity
  8
0
  6
Continuous
 62
     7
370
    15
100
AcDbLine
 10
262.6743176722
 20
94.4934423131
 30
0.0
 11
259.8741466182
 21
91.7603895212
 31
0.0
  0
LINE
  5
34E
330
1F
100
AcDbEntity
  8
0
  6
Continuous
 62
     7
370
    15
100
AcDbLine
 10
259.7341370224
 20
91.6237358635
 30
0.0
 11
254.4276280815
 21
93.0659312889
 31
0.0
  0
LINE
  5
34F
330
1F
100
AcDbEntity
  8
0
  6
Continuous
 62
     7
370
    15
100
AcDbLine
 10
254.4276280815
 20
93.0659312889
 30
0.0
 11
251.6274556366
 21
90.3328771394
 31
0.0
  0
LINE
  5
350
330
1F
100
AcDbEntity
  8
0
  6
Continuous
 62
     7
370
    15
100
AcDbLine
 10
256.9339645775
 20
88.890681714
 30
0.0
 11
251.6274556366
 21
90.3328771394
 31
0.0
  0
LINE
  5
351
330
1F
100
AcDbEntity
  8
0
  6
Continuous
 62
     7
370
    15
100
AcDbLine
 10
259.7341370224
 20
91.6237358635
 30
0.0
 11
256.9339645775
 21
88.890681714
 31
0.0
  0
LINE
  5
352
330
1F
100
AcDbEntity
  8
0
  6
Continuous
 62
     7
370
    15
100
AcDbLine
 10
256.7939563726
 20
88.7540294138
 30
0.0
 11
251.4874474316
 21
90.1962248392
 31
0.0
  0
LINE
  5
353
330
1F
100
AcDbEntity
  8
0
  6
Continuous
 62
     7
370
    15
100
AcDbLine
 10
251.4874474316
 20
90.1962248392
 30
0.0
 11
248.6872749868
 21
87.4631706898
 31
0.0
  0
LINE
  5
354
330
1F
100
AcDbEntity
  8
0
  6
Continuous
 62
     7
370
    15
100
AcDbLine
 10
253.9937839277
 20
86.0209752644
 30
0.0
 11
248.6872749868
 21
87.4631706898
 31
0.0
  0
LINE
  5
355
330
1F
100
AcDbEntity
  8
0
  6
Continuous
 62
     7
370
    15
100
AcDbLine
 10
256.7939563726
 20
88.7540294138
 30
0.0
 11
253.9937839277
 21
86.0209752644
 31
0.0
  0
LINE
  5
356
330
1F
100
AcDbEntity
  8
0
  6
Continuous
 62
     7
370
    15
100
AcDbLine
 10
236.7865427916
 20
75.8476912335
 30
0.0
 11
233.9863705206
 21
73.1146372538
 31
0.0
  0
LINE
  5
357
330
1F
100
AcDbEntity
  8
0
  6
Continuous
 62
     7
370
    15
100
AcDbLine
 10
239.2928794615
 20
71.6724418284
 30
0.0
 11
233.9863705206
 21
73.1146372538
 31
0.0
  0
LINE
  5
358
330
1F
100
AcDbEntity
  8
0
  6
Continuous
 62
     7
370
    15
100
AcDbLine
 10
242.0930517325
 20
74.4054958081
 30
0.0
 11
239.2928794615
 21
71.6724418284
 31
0.0
  0
LINE
  5
359
330
1F
100
AcDbEntity
  8
0
  6
Continuous
 62
     7
370
    15
100
AcDbLine
 10
242.0930517325
 20
74.4054958081
 30
0.0
 11
236.7865427916
 21
75.8476912335
 31
0.0
  0
LINE
  5
35A
330
1F
100
AcDbEntity
  8
0
  6
Continuous
 62
     7
370
    15
100
AcDbLine
 10
239.7267234414
 20
78.7173976831
 30
0.0
 11
236.9265513443
 21
75.9843438731
 31
0.0
  0
LINE
  5
35B
330
1F
100
AcDbEntity
  8
0
  6
Continuous
 62
     7
370
    15
100
AcDbLine
 10
242.2330602852
 20
74.5421484477
 30
0.0
 11
236.9265513443
 21
75.9843438731
 31
0.0
  0
LINE
  5
35C
330
1F
100
AcDbEntity
  8
0
  6
Continuous
 62
     7
370
    15
100
AcDbLine
 10
245.0332323824
 20
77.2752022577
 30
0.0
 11
242.2330602852
 21
74.5421484477
 31
0.0
  0
LINE
  5
35D
330
1F
100
AcDbEntity
  8
0
  6
Continuous
 62
     7
370
    15
100
AcDbLine
 10
245.0332323824
 20
77.2752022577
 30
0.0
 11
239.7267234414
 21
78.7173976831
 31
0.0
  0
LINE
  5
35E
330
1F
100
AcDbEntity
  8
0
  6
Continuous
 62
     7
370
    15
100
AcDbLine
 10
242.6669047867
 20
81.5871048115
 30
0.0
 11
239.8667323418
 21
78.8540506621
 31
0.0
  0
LINE
  5
35F
330
1F
100
AcDbEntity
  8
0
  6
Continuous
 62
     7
370
    15
100
AcDbLine
 10
245.1732412828
 20
77.4118552367
 30
0.0
 11
239.8667323418
 21
78.8540506621
 31
0.0
  0
LINE
  5
360
330
1F
100
AcDbEntity
  8
0
  6
Continuous
 62
     7
370
    15
100
AcDbLine
 10
247.9734137276
 20
80.1449093861
 30
0.0
 11
245.1732412828
 21
77.4118552367
 31
0.0
  0
LINE
  5
361
330
1F
100
AcDbEntity
  8
0
  6
Continuous
 62
     7
370
    15
100
AcDbLine
 10
247.9734137276
 20
80.1449093861
 30
0.0
 11
242.6669047867
 21
81.5871048115
 31
0.0
  0
LINE
  5
362
330
1F
100
AcDbEntity
  8
0
  6
Continuous
 62
     7
370
    15
100
AcDbLine
 10
245.607086132
 20
84.45681194
 30
0.0
 11
242.8069129917
 21
81.7237571118
 31
0.0
  0
LINE
  5
363
330
1F
100
AcDbEntity
  8
0
  6
Continuous
 62
     7
370
    15
100
AcDbLine
 10
248.1134219326
 20
80.2815616864
 30
0.0
 11
242.8069129917
 21
81.7237571118
 31
0.0
  0
LINE
  5
364
330
1F
100
AcDbEntity
  8
0
  6
Continuous
 62
     7
370
    15
100
AcDbLine
 10
250.9135950729
 20
83.0146165145
 30
0.0
 11
248.1134219326
 21
80.2815616864
 31
0.0
  0
LINE
  5
365
330
1F
100
AcDbEntity
  8
0
  6
Continuous
 62
     7
370
    15
100
AcDbLine
 10
250.9135950729
 20
83.0146165145
 30
0.0
 11
245.607086132
 21
84.45681194
 31
0.0
  0
LINE
  5
366
330
1F
100
AcDbEntity
  8
0
  6
Continuous
 62
     7
370
    15
100
AcDbLine
 10
253.8537757227
 20
85.8843229642
 30
0.0
 11
248.5472667818
 21
87.3265183896
 31
0.0
  0
LINE
  5
367
330
1F
100
AcDbEntity
  8
0
  6
Continuous
 62
     7
370
    15
100
AcDbLine
 10
248.5472667818
 20
87.3265183896
 30
0.0
 11
245.7470943369
 21
84.5934642402
 31
0.0
  0
LINE
  5
368
330
1F
100
AcDbEntity
  8
0
  6
Continuous
 62
     7
370
    15
100
AcDbLine
 10
251.0536032779
 20
83.1512688148
 30
0.0
 11
245.7470943369
 21
84.5934642402
 31
0.0
  0
LINE
  5
369
330
1F
100
AcDbEntity
  8
0
  6
Continuous
 62
     7
370
    15
100
AcDbLine
 10
253.8537757227
 20
85.8843229642
 30
0.0
 11
251.0536032779
 21
83.1512688148
 31
0.0
  0
LINE
  5
36A
330
1F
100
AcDbEntity
  8
0
  6
Continuous
 62
     7
370
    15
100
AcDbLine
 10
239.152870735
 20
71.5357890191
 30
0.0
 11
233.8463617941
 21
72.9779844445
 31
0.0
  0
LINE
  5
36B
330
1F
100
AcDbEntity
  8
0
  6
Continuous
 62
     7
370
    15
100
AcDbLine
 10
233.8463617941
 20
72.9779844445
 30
0.0
 11
232.8896363072
 21
72.0441910396
 31
0.0
  0
LINE
  5
36C
330
1F
100
AcDbEntity
  8
0
  6
Continuous
 62
     7
370
    15
100
AcDbLine
 10
238.1961452482
 20
70.6019956142
 30
0.0
 11
232.8896363072
 21
72.0441910396
 31
0.0
  0
LINE
  5
36D
330
1F
100
AcDbEntity
  8
0
  6
Continuous
 62
     7
370
    15
100
AcDbLine
 10
239.152870735
 20
71.5357890191
 30
0.0
 11
238.1961452482
 21
70.6019956142
 31
0.0
  0
LINE
  5
36E
330
1F
100
AcDbEntity
  8
0
  6
Continuous
 62
     7
370
    15
100
AcDbLine
 10
247.1642021994
 20
69.5331849702
 30
0.0
 11
244.9531537323
 21
70.1341005666
 31
0.0
  0
LINE
  5
36F
330
1F
100
AcDbEntity
  8
0
  6
Continuous
 62
     7
370
    15
100
AcDbLine
 10
249.9643744704
 20
72.26623895
 30
0.0
 11
247.1642021994
 21
69.5331849702
 31
0.0
  0
LINE
  5
370
330
1F
100
AcDbEntity
  8
0
  6
Continuous
 62
     7
370
    15
100
AcDbLine
 10
249.9643744704
 20
72.26623895
 30
0.0
 11
247.7533260033
 21
72.8671545463
 31
0.0
  0
LINE
  5
371
330
1F
100
AcDbEntity
  8
0
  6
Continuous
 62
     7
370
    15
100
AcDbLine
 10
247.7533260033
 20
72.8671545463
 30
0.0
 11
244.9531537323
 21
70.1341005666
 31
0.0
  0
LINE
  5
372
330
1F
100
AcDbEntity
  8
0
  6
Continuous
 62
     7
370
    15
100
AcDbLine
 10
250.1043830231
 20
72.4028915896
 30
0.0
 11
247.893334556
 21
73.0038071859
 31
0.0
  0
LINE
  5
373
330
1F
100
AcDbEntity
  8
0
  6
Continuous
 62
     7
370
    15
100
AcDbLine
 10
252.9045551202
 20
75.1359453996
 30
0.0
 11
250.1043830231
 21
72.4028915896
 31
0.0
  0
LINE
  5
374
330
1F
100
AcDbEntity
  8
0
  6
Continuous
 62
     7
370
    15
100
AcDbLine
 10
252.9045551202
 20
75.1359453996
 30
0.0
 11
250.6935066531
 21
75.7368609959
 31
0.0
  0
LINE
  5
375
330
1F
100
AcDbEntity
  8
0
  6
Continuous
 62
     7
370
    15
100
AcDbLine
 10
250.6935066531
 20
75.7368609959
 30
0.0
 11
247.893334556
 21
73.0038071859
 31
0.0
  0
LINE
  5
376
330
1F
100
AcDbEntity
  8
0
  6
Continuous
 62
     7
370
    15
100
AcDbLine
 10
253.0445640207
 20
75.2725983786
 30
0.0
 11
250.8335155535
 21
75.8735139749
 31
0.0
  0
LINE
  5
377
330
1F
100
AcDbEntity
  8
0
  6
Continuous
 62
     7
370
    15
100
AcDbLine
 10
255.8447364655
 20
78.005652528
 30
0.0
 11
253.0445640207
 21
75.2725983786
 31
0.0
  0
LINE
  5
378
330
1F
100
AcDbEntity
  8
0
  6
Continuous
 62
     7
370
    15
100
AcDbLine
 10
255.8447364655
 20
78.005652528
 30
0.0
 11
253.6336879984
 21
78.6065681244
 31
0.0
  0
LINE
  5
379
330
1F
100
AcDbEntity
  8
0
  6
Continuous
 62
     7
370
    15
100
AcDbLine
 10
253.6336879984
 20
78.6065681244
 30
0.0
 11
250.8335155535
 21
75.8735139749
 31
0.0
  0
LINE
  5
37A
330
1F
100
AcDbEntity
  8
0
  6
Continuous
 62
     7
370
    15
100
AcDbLine
 10
255.9847446705
 20
78.1423048282
 30
0.0
 11
253.7736962034
 21
78.7432204246
 31
0.0
  0
LINE
  5
37B
330
1F
100
AcDbEntity
  8
0
  6
Continuous
 62
     7
370
    15
100
AcDbLine
 10
258.7849178108
 20
80.8753596564
 30
0.0
 11
255.9847446705
 21
78.1423048282
 31
0.0
  0
LINE
  5
37C
330
1F
100
AcDbEntity
  8
0
  6
Continuous
 62
     7
370
    15
100
AcDbLine
 10
258.7849178108
 20
80.8753596564
 30
0.0
 11
256.5738693436
 21
81.4762752528
 31
0.0
  0
LINE
  5
37D
330
1F
100
AcDbEntity
  8
0
  6
Continuous
 62
     7
370
    15
100
AcDbLine
 10
256.5738693436
 20
81.4762752528
 30
0.0
 11
253.7736962034
 21
78.7432204246
 31
0.0
  0
LINE
  5
37E
330
1F
100
AcDbEntity
  8
0
  6
Continuous
 62
     7
370
    15
100
AcDbLine
 10
261.7250984606
 20
83.7450661061
 30
0.0
 11
258.9249260157
 21
81.0120119566
 31
0.0
  0
LINE
  5
37F
330
1F
100
AcDbEntity
  8
0
  6
Continuous
 62
     7
370
    15
100
AcDbLine
 10
261.7250984606
 20
83.7450661061
 30
0.0
 11
259.5140499935
 21
84.3459817024
 31
0.0
  0
LINE
  5
380
330
1F
100
AcDbEntity
  8
0
  6
Continuous
 62
     7
370
    15
100
AcDbLine
 10
259.5140499935
 20
84.3459817024
 30
0.0
 11
256.7138775486
 21
81.612927553
 31
0.0
  0
LINE
  5
381
330
1F
100
AcDbEntity
  8
0
  6
Continuous
 62
     7
370
    15
100
AcDbLine
 10
258.9249260157
 20
81.0120119566
 30
0.0
 11
256.7138775486
 21
81.612927553
 31
0.0
  0
LINE
  5
382
330
1F
100
AcDbEntity
  8
0
  6
Continuous
 62
     7
370
    15
100
AcDbLine
 10
264.6652791104
 20
86.6147725557
 30
0.0
 11
261.8651066656
 21
83.8817184063
 31
0.0
  0
LINE
  5
383
330
1F
100
AcDbEntity
  8
0
  6
Continuous
 62
     7
370
    15
100
AcDbLine
 10
264.6652791104
 20
86.6147725557
 30
0.0
 11
262.4542306433
 21
87.215688152
 31
0.0
  0
LINE
  5
384
330
1F
100
AcDbEntity
  8
0
  6
Continuous
 62
     7
370
    15
100
AcDbLine
 10
262.4542306433
 20
87.215688152
 30
0.0
 11
259.6540581985
 21
84.4826340026
 31
0.0
  0
LINE
  5
385
330
1F
100
AcDbEntity
  8
0
  6
Continuous
 62
     7
370
    15
100
AcDbLine
 10
261.8651066656
 20
83.8817184063
 30
0.0
 11
259.6540581985
 21
84.4826340026
 31
0.0
  0
LINE
  5
386
330
1F
100
AcDbEntity
  8
0
  6
Continuous
 62
     7
370
    15
100
AcDbLine
 10
267.6054597603
 20
89.4844790054
 30
0.0
 11
264.8052873154
 21
86.7514248559
 31
0.0
  0
LINE
  5
387
330
1F
100
AcDbEntity
  8
0
  6
Continuous
 62
     7
370
    15
100
AcDbLine
 10
267.6054597603
 20
89.4844790054
 30
0.0
 11
265.3944112931
 21
90.0853946017
 31
0.0
  0
LINE
  5
388
330
1F
100
AcDbEntity
  8
0
  6
Continuous
 62
     7
370
    15
100
AcDbLine
 10
265.3944112931
 20
90.0853946017
 30
0.0
 11
262.5942388483
 21
87.3523404523
 31
0.0
  0
LINE
  5
389
330
1F
100
AcDbEntity
  8
0
  6
Continuous
 62
     7
370
    15
100
AcDbLine
 10
264.8052873154
 20
86.7514248559
 30
0.0
 11
262.5942388483
 21
87.3523404523
 31
0.0
  0
LINE
  5
38A
330
1F
100
AcDbEntity
  8
0
  6
Continuous
 62
     7
370
    15
100
AcDbLine
 10
270.5456404101
 20
92.354185455
 30
0.0
 11
267.7454693561
 21
89.6211326631
 31
0.0
  0
LINE
  5
38B
330
1F
100
AcDbEntity
  8
0
  6
Continuous
 62
     7
370
    15
100
AcDbLine
 10
270.5456404101
 20
92.354185455
 30
0.0
 11
268.334591943
 21
92.9551010513
 31
0.0
  0
LINE
  5
38C
330
1F
100
AcDbEntity
  8
0
  6
Continuous
 62
     7
370
    15
100
AcDbLine
 10
268.334591943
 20
92.9551010513
 30
0.0
 11
265.534420889
 21
90.2220482594
 31
0.0
  0
LINE
  5
38D
330
1F
100
AcDbEntity
  8
0
  6
Continuous
 62
     7
370
    15
100
AcDbLine
 10
267.7454693561
 20
89.6211326631
 30
0.0
 11
265.534420889
 21
90.2220482594
 31
0.0
  0
LINE
  5
38E
330
1F
100
AcDbEntity
  8
0
  6
Continuous
 62
     7
370
    15
100
AcDbLine
 10
263.9479369985
 20
95.5158163539
 30
0.0
 11
262.9912112509
 21
94.5820226945
 31
0.0
  0
LINE
  5
38F
330
1F
100
AcDbEntity
  8
0
  6
Continuous
 62
     7
370
    15
100
AcDbLine
 10
268.2977201918
 20
93.1398272691
 30
0.0
 11
262.9912112509
 21
94.5820226945
 31
0.0
  0
LINE
  5
390
330
1F
100
AcDbEntity
  8
0
  6
Continuous
 62
     7
370
    15
100
AcDbLine
 10
269.2544459394
 20
94.0736209285
 30
0.0
 11
268.2977201918
 21
93.1398272691
 31
0.0
  0
LINE
  5
391
330
1F
100
AcDbEntity
  8
0
  6
Continuous
 62
     7
370
    15
100
AcDbLine
 10
263.9479369985
 20
95.5158163539
 30
0.0
 11
269.2544459394
 21
94.0736209285
 31
0.0
  0
LINE
  5
392
330
1F
100
AcDbEntity
  8
0
  6
Continuous
 62
     7
370
    15
100
AcDbLine
 10
268.1577105959
 20
93.0031736113
 30
0.0
 11
262.851201655
 21
94.4453690367
 31
0.0
  0
LINE
  5
393
330
1F
100
AcDbEntity
  8
0
  6
Continuous
 62
     7
370
    15
100
AcDbLine
 10
262.851201655
 20
94.4453690367
 30
0.0
 11
260.051030601
 21
91.7123162448
 31
0.0
  0
LINE
  5
394
330
1F
100
AcDbEntity
  8
0
  6
Continuous
 62
     7
370
    15
100
AcDbLine
 10
265.357539542
 20
90.2701208194
 30
0.0
 11
260.051030601
 21
91.7123162448
 31
0.0
  0
LINE
  5
395
330
1F
100
AcDbEntity
  8
0
  6
Continuous
 62
     7
370
    15
100
AcDbLine
 10
268.1577105959
 20
93.0031736113
 30
0.0
 11
265.357539542
 21
90.2701208194
 31
0.0
  0
LINE
  5
396
330
1F
100
AcDbEntity
  8
0
  6
Continuous
 62
     7
370
    15
100
AcDbLine
 10
265.2175299461
 20
90.1334671617
 30
0.0
 11
259.9110210052
 21
91.5756625871
 31
0.0
  0
LINE
  5
397
330
1F
100
AcDbEntity
  8
0
  6
Continuous
 62
     7
370
    15
100
AcDbLine
 10
259.9110210052
 20
91.5756625871
 30
0.0
 11
257.1108485603
 21
88.8426084377
 31
0.0
  0
LINE
  5
398
330
1F
100
AcDbEntity
  8
0
  6
Continuous
 62
     7
370
    15
100
AcDbLine
 10
262.4173575013
 20
87.4004130123
 30
0.0
 11
257.1108485603
 21
88.8426084377
 31
0.0
  0
LINE
  5
399
330
1F
100
AcDbEntity
  8
0
  6
Continuous
 62
     7
370
    15
100
AcDbLine
 10
265.2175299461
 20
90.1334671617
 30
0.0
 11
262.4173575013
 21
87.4004130123
 31
0.0
  0
LINE
  5
39A
330
1F
100
AcDbEntity
  8
0
  6
Continuous
 62
     7
370
    15
100
AcDbLine
 10
262.2773492963
 20
87.2637607121
 30
0.0
 11
256.9708403554
 21
88.7059561375
 31
0.0
  0
LINE
  5
39B
330
1F
100
AcDbEntity
  8
0
  6
Continuous
 62
     7
370
    15
100
AcDbLine
 10
256.9708403554
 20
88.7059561375
 30
0.0
 11
254.1706679105
 21
85.972901988
 31
0.0
  0
LINE
  5
39C
330
1F
100
AcDbEntity
  8
0
  6
Continuous
 62
     7
370
    15
100
AcDbLine
 10
259.4771768514
 20
84.5307065626
 30
0.0
 11
254.1706679105
 21
85.972901988
 31
0.0
  0
LINE
  5
39D
330
1F
100
AcDbEntity
  8
0
  6
Continuous
 62
     7
370
    15
100
AcDbLine
 10
262.2773492963
 20
87.2637607121
 30
0.0
 11
259.4771768514
 21
84.5307065626
 31
0.0
  0
LINE
  5
39E
330
1F
100
AcDbEntity
  8
0
  6
Continuous
 62
     7
370
    15
100
AcDbLine
 10
242.2699357153
 20
74.3574225317
 30
0.0
 11
239.4697634443
 21
71.624368552
 31
0.0
  0
LINE
  5
39F
330
1F
100
AcDbEntity
  8
0
  6
Continuous
 62
     7
370
    15
100
AcDbLine
 10
244.7762723853
 20
70.1821731266
 30
0.0
 11
239.4697634443
 21
71.624368552
 31
0.0
  0
LINE
  5
3A0
330
1F
100
AcDbEntity
  8
0
  6
Continuous
 62
     7
370
    15
100
AcDbLine
 10
247.5764446563
 20
72.9152271063
 30
0.0
 11
244.7762723853
 21
70.1821731266
 31
0.0
  0
LINE
  5
3A1
330
1F
100
AcDbEntity
  8
0
  6
Continuous
 62
     7
370
    15
100
AcDbLine
 10
247.5764446563
 20
72.9152271063
 30
0.0
 11
242.2699357153
 21
74.3574225317
 31
0.0
  0
LINE
  5
3A2
330
1F
100
AcDbEntity
  8
0
  6
Continuous
 62
     7
370
    15
100
AcDbLine
 10
245.2101163652
 20
77.2271289814
 30
0.0
 11
242.409944268
 21
74.4940751713
 31
0.0
  0
LINE
  5
3A3
330
1F
100
AcDbEntity
  8
0
  6
Continuous
 62
     7
370
    15
100
AcDbLine
 10
247.716453209
 20
73.0518797459
 30
0.0
 11
242.409944268
 21
74.4940751713
 31
0.0
  0
LINE
  5
3A4
330
1F
100
AcDbEntity
  8
0
  6
Continuous
 62
     7
370
    15
100
AcDbLine
 10
250.5166253061
 20
75.784933556
 30
0.0
 11
247.716453209
 21
73.0518797459
 31
0.0
  0
LINE
  5
3A5
330
1F
100
AcDbEntity
  8
0
  6
Continuous
 62
     7
370
    15
100
AcDbLine
 10
250.5166253061
 20
75.784933556
 30
0.0
 11
245.2101163652
 21
77.2271289814
 31
0.0
  0
LINE
  5
3A6
330
1F
100
AcDbEntity
  8
0
  6
Continuous
 62
     7
370
    15
100
AcDbLine
 10
248.1502977104
 20
80.0968361098
 30
0.0
 11
245.3501252656
 21
77.3637819603
 31
0.0
  0
LINE
  5
3A7
330
1F
100
AcDbEntity
  8
0
  6
Continuous
 62
     7
370
    15
100
AcDbLine
 10
250.6566342065
 20
75.9215865349
 30
0.0
 11
245.3501252656
 21
77.3637819603
 31
0.0
  0
LINE
  5
3A8
330
1F
100
AcDbEntity
  8
0
  6
Continuous
 62
     7
370
    15
100
AcDbLine
 10
253.4568066514
 20
78.6546406844
 30
0.0
 11
250.6566342065
 21
75.9215865349
 31
0.0
  0
LINE
  5
3A9
330
1F
100
AcDbEntity
  8
0
  6
Continuous
 62
     7
370
    15
100
AcDbLine
 10
253.4568066514
 20
78.6546406844
 30
0.0
 11
248.1502977104
 21
80.0968361098
 31
0.0
  0
LINE
  5
3AA
330
1F
100
AcDbEntity
  8
0
  6
Continuous
 62
     7
370
    15
100
AcDbLine
 10
251.0904790557
 20
82.9665432382
 30
0.0
 11
248.2903059154
 21
80.23348841
 31
0.0
  0
LINE
  5
3AB
330
1F
100
AcDbEntity
  8
0
  6
Continuous
 62
     7
370
    15
100
AcDbLine
 10
253.5968148563
 20
78.7912929846
 30
0.0
 11
248.2903059154
 21
80.23348841
 31
0.0
  0
LINE
  5
3AC
330
1F
100
AcDbEntity
  8
0
  6
Continuous
 62
     7
370
    15
100
AcDbLine
 10
256.3969879966
 20
81.5243478128
 30
0.0
 11
253.5968148563
 21
78.7912929846
 31
0.0
  0
LINE
  5
3AD
330
1F
100
AcDbEntity
  8
0
  6
Continuous
 62
     7
370
    15
100
AcDbLine
 10
256.3969879966
 20
81.5243478128
 30
0.0
 11
251.0904790557
 21
82.9665432382
 31
0.0
  0
LINE
  5
3AE
330
1F
100
AcDbEntity
  8
0
  6
Continuous
 62
     7
370
    15
100
AcDbLine
 10
259.3371686464
 20
84.3940542624
 30
0.0
 11
254.0306597055
 21
85.8362496878
 31
0.0
  0
LINE
  5
3AF
330
1F
100
AcDbEntity
  8
0
  6
Continuous
 62
     7
370
    15
100
AcDbLine
 10
254.0306597055
 20
85.8362496878
 30
0.0
 11
251.2304872607
 21
83.1031955384
 31
0.0
  0
LINE
  5
3B0
330
1F
100
AcDbEntity
  8
0
  6
Continuous
 62
     7
370
    15
100
AcDbLine
 10
256.5369962016
 20
81.661000113
 30
0.0
 11
251.2304872607
 21
83.1031955384
 31
0.0
  0
LINE
  5
3B1
330
1F
100
AcDbEntity
  8
0
  6
Continuous
 62
     7
370
    15
100
AcDbLine
 10
259.3371686464
 20
84.3940542624
 30
0.0
 11
256.5369962016
 21
81.661000113
 31
0.0
  0
LINE
  5
3B2
330
1F
100
AcDbEntity
  8
0
  6
Continuous
 62
     7
370
    15
100
AcDbLine
 10
270.6856500059
 20
92.4908391127
 30
0.0
 11
268.4746015388
 21
93.0917547091
 31
0.0
  0
LINE
  5
3B3
330
1F
100
AcDbEntity
  8
0
  6
Continuous
 62
     7
370
    15
100
AcDbLine
 10
271.6423757535
 20
93.4246327722
 30
0.0
 11
270.6856500059
 21
92.4908391127
 31
0.0
  0
LINE
  5
3B4
330
1F
100
AcDbEntity
  8
0
  6
Continuous
 62
     7
370
    15
100
AcDbLine
 10
273.8041536982
 20
93.7688611668
 30
0.0
 11
246.7358219192
 21
67.3493395324
 31
0.0
  0
LINE
  5
3B5
330
1F
100
AcDbEntity
  8
0
  6
Continuous
 62
     7
370
    15
100
AcDbLine
 10
247.0241934729
 20
69.396532161
 30
0.0
 11
246.067467986
 21
68.4627387561
 31
0.0
  0
LINE
  5
3B6
330
1F
100
AcDbEntity
  8
0
  6
Continuous
 62
     7
370
    15
100
AcDbLine
 10
247.0241934729
 20
69.396532161
 30
0.0
 11
244.8131450057
 21
69.9974477573
 31
0.0
  0
LINE
  5
3B7
330
1F
100
AcDbEntity
  8
0
  6
Continuous
 62
     7
370
    15
100
AcDbLine
 10
244.8131450057
 20
69.9974477573
 30
0.0
 11
243.8564195189
 21
69.0636543524
 31
0.0
  0
LINE
  5
3B8
330
1F
100
AcDbEntity
  8
0
  6
Continuous
 62
     7
370
    15
100
AcDbLine
 10
246.067467986
 20
68.4627387561
 30
0.0
 11
243.8564195189
 21
69.0636543524
 31
0.0
  0
LINE
  5
3B9
330
1F
100
AcDbEntity
  8
0
  6
Continuous
 62
     7
370
    15
100
AcDbLine
 10
246.067467986
 20
68.4627387561
 30
0.0
 11
246.7358219192
 21
67.3493395324
 31
0.0
  0
LINE
  5
3BA
330
1F
100
AcDbEntity
  8
0
  6
Continuous
 62
     7
370
    15
100
AcDbLine
 10
246.7358219192
 20
67.3493395324
 30
0.0
 11
195.4395723379
 21
81.2905610229
 31
0.0
  0
LINE
  5
3BB
330
1F
100
AcDbEntity
  8
0
  6
Continuous
 62
     7
370
    15
100
AcDbLine
 10
199.8123993947
 20
81.033875273
 30
0.0
 11
197.6013540575
 21
81.6347900186
 31
0.0
  0
LINE
  5
3BC
330
1F
100
AcDbEntity
  8
0
  6
Continuous
 62
     7
370
    15
100
AcDbLine
 10
200.7691248815
 20
81.9676686779
 30
0.0
 11
199.8123993947
 21
81.033875273
 31
0.0
  0
LINE
  5
3BD
330
1F
100
AcDbEntity
  8
0
  6
Continuous
 62
     7
370
    15
100
AcDbLine
 10
200.7691248815
 20
81.9676686779
 30
0.0
 11
198.5580795444
 21
82.5685834235
 31
0.0
  0
LINE
  5
3BE
330
1F
100
AcDbEntity
  8
0
  6
Continuous
 62
     7
370
    15
100
AcDbLine
 10
198.5580795444
 20
82.5685834235
 30
0.0
 11
197.6013540575
 21
81.6347900186
 31
0.0
  0
LINE
  5
3BF
330
1F
100
AcDbEntity
  8
0
  6
Continuous
 62
     7
370
    15
100
AcDbLine
 10
195.4395723379
 20
81.2905610229
 30
0.0
 11
197.6013540575
 21
81.6347900186
 31
0.0
  0
LINE
  5
3C0
330
1F
100
AcDbEntity
  8
0
  6
Continuous
 62
     7
370
    15
100
AcDbLine
 10
222.507904117
 20
107.7100826573
 30
0.0
 11
195.4395723379
 21
81.2905610229
 31
0.0
  0
LINE
  5
3C1
330
1F
100
AcDbEntity
  8
0
  6
Continuous
 62
     7
370
    15
100
AcDbLine
 10
223.176261825
 20
106.5966840347
 30
0.0
 11
222.2195360774
 21
105.6628903753
 31
0.0
  0
LINE
  5
3C2
330
1F
100
AcDbEntity
  8
0
  6
Continuous
 62
     7
370
    15
100
AcDbLine
 10
224.4305814146
 20
105.0619756296
 30
0.0
 11
222.2195360774
 21
105.6628903753
 31
0.0
  0
LINE
  5
3C3
330
1F
100
AcDbEntity
  8
0
  6
Continuous
 62
     7
370
    15
100
AcDbLine
 10
225.3873071622
 20
105.9957692891
 30
0.0
 11
224.4305814146
 21
105.0619756296
 31
0.0
  0
LINE
  5
3C4
330
1F
100
AcDbEntity
  8
0
  6
Continuous
 62
     7
370
    15
100
AcDbLine
 10
223.176261825
 20
106.5966840347
 30
0.0
 11
225.3873071622
 21
105.9957692891
 31
0.0
  0
LINE
  5
3C5
330
1F
100
AcDbEntity
  8
0
  6
Continuous
 62
     7
370
    15
100
AcDbLine
 10
223.176261825
 20
106.5966840347
 30
0.0
 11
222.507904117
 21
107.7100826573
 31
0.0
  0
LINE
  5
3C6
330
1F
100
AcDbEntity
  8
0
  6
Continuous
 62
     7
370
    15
100
AcDbLine
 10
222.507904117
 20
107.7100826573
 30
0.0
 11
273.8041536982
 21
93.7688611668
 31
0.0
  0
LINE
  5
3C7
330
1F
100
AcDbEntity
  8
0
  6
Continuous
 62
     7
370
    15
100
AcDbLine
 10
273.8041536982
 20
93.7688611668
 30
0.0
 11
271.6423757535
 21
93.4246327722
 31
0.0
  0
LINE
  5
3C8
330
1F
100
AcDbEntity
  8
0
  6
Continuous
 62
     7
370
    15
100
AcDbLine
 10
269.4313272864
 20
94.0255483685
 30
0.0
 11
271.6423757535
 21
93.4246327722
 31
0.0
  0
LINE
  5
3C9
330
1F
100
AcDbEntity
  8
0
  6
Continuous
 62
     7
370
    15
100
AcDbLine
 10
269.4313272864
 20
94.0255483685
 30
0.0
 11
268.4746015388
 21
93.0917547091
 31
0.0
  0
LINE
  5
3CA
330
1F
100
AcDbEntity
  8
0
  6
Continuous
 62
     7
370
    15
100
AcDbLine
 10
244.6362636587
 20
70.0455203173
 30
0.0
 11
239.3297547178
 21
71.4877157427
 31
0.0
  0
LINE
  5
3CB
330
1F
100
AcDbEntity
  8
0
  6
Continuous
 62
     7
370
    15
100
AcDbLine
 10
239.3297547178
 20
71.4877157427
 30
0.0
 11
238.373029231
 21
70.5539223378
 31
0.0
  0
LINE
  5
3CC
330
1F
100
AcDbEntity
  8
0
  6
Continuous
 62
     7
370
    15
100
AcDbLine
 10
243.6795381719
 20
69.1117269124
 30
0.0
 11
238.373029231
 21
70.5539223378
 31
0.0
  0
LINE
  5
3CD
330
1F
100
AcDbEntity
  8
0
  6
Continuous
 62
     7
370
    15
100
AcDbLine
 10
244.6362636587
 20
70.0455203173
 30
0.0
 11
243.6795381719
 21
69.1117269124
 31
0.0
  0
LINE
  5
3CE
330
1F
100
AcDbEntity
  8
0
  6
Continuous
 62
     7
370
    15
100
AcDbLine
 10
246.7358219192
 20
67.3493395324
 30
0.0
 11
246.7358219192
 21
63.063502965
 31
0.0
  0
LINE
  5
3CF
330
1F
100
AcDbEntity
  8
0
  6
Continuous
 62
     7
370
    15
100
AcDbLine
 10
246.7358219192
 20
63.063502965
 30
0.0
 11
195.4395723379
 21
77.0047244555
 31
0.0
  0
LINE
  5
3D0
330
1F
100
AcDbEntity
  8
0
  6
Continuous
 62
     7
370
    15
100
AcDbLine
 10
195.4395723379
 20
77.0047244555
 30
0.0
 11
195.4395723379
 21
81.2905610229
 31
0.0
  0
LINE
  5
3D1
330
1F
100
AcDbEntity
  8
0
  6
Continuous
 62
     7
370
    15
100
AcDbLine
 10
273.8041536982
 20
89.4830245994
 30
0.0
 11
273.8041536982
 21
93.7688611668
 31
0.0
  0
LINE
  5
3D2
330
1F
100
AcDbEntity
  8
0
  6
Continuous
 62
     7
370
    15
100
AcDbLine
 10
273.8041536982
 20
89.4830245994
 30
0.0
 11
246.7358219192
 21
63.063502965
 31
0.0
  0
LINE
  5
3D3
330
1F
100
AcDbEntity
  8
0
  6
Continuous
 62
     7
370
    15
100
AcDbLine
 10
244.8131450057
 20
69.9974477573
 30
0.0
 11
244.8131450057
 21
68.803636721
 31
0.0
  0
LINE
  5
3D4
330
1F
100
AcDbEntity
  8
0
  6
Continuous
 62
     7
370
    15
100
AcDbLine
 10
198.5580795444
 20
82.5685834235
 30
0.0
 11
198.5580795444
 21
82.225716447
 31
0.0
  0
LINE
  5
3D5
330
1F
100
AcDbEntity
  8
0
  6
Continuous
 62
     7
370
    15
100
AcDbLine
 10
200.9460085348
 20
80.7257844547
 30
0.0
 11
200.9460085348
 21
81.919595491
 31
0.0
  0
LINE
  5
3D6
330
1F
100
AcDbEntity
  8
0
  6
Continuous
 62
     7
370
    15
100
AcDbLine
 10
206.4294004701
 20
79.2355160216
 30
0.0
 11
206.4294004701
 21
80.4293270579
 31
0.0
  0
LINE
  5
3D7
330
1F
100
AcDbEntity
  8
0
  6
Continuous
 62
     7
370
    15
100
AcDbLine
 10
211.9127927349
 20
77.7452474989
 30
0.0
 11
211.9127927349
 21
78.9390585352
 31
0.0
  0
LINE
  5
3D8
330
1F
100
AcDbEntity
  8
0
  6
Continuous
 62
     7
370
    15
100
AcDbLine
 10
217.3961856586
 20
76.2549787971
 30
0.0
 11
217.3961856586
 21
77.4487898334
 31
0.0
  0
LINE
  5
3D9
330
1F
100
AcDbEntity
  8
0
  6
Continuous
 62
     7
370
    15
100
AcDbLine
 10
222.8795785824
 20
74.7647100953
 30
0.0
 11
222.8795785824
 21
75.9585211317
 31
0.0
  0
LINE
  5
3DA
330
1F
100
AcDbEntity
  8
0
  6
Continuous
 62
     7
370
    15
100
AcDbLine
 10
228.3629688703
 20
74.4682531463
 30
0.0
 11
228.3629688703
 21
73.2744421099
 31
0.0
  0
LINE
  5
3DB
330
1F
100
AcDbEntity
  8
0
  6
Continuous
 62
     7
370
    15
100
AcDbLine
 10
233.8463617941
 20
72.9779844445
 30
0.0
 11
233.8463617941
 21
71.7841734081
 31
0.0
  0
LINE
  5
3DC
330
1F
100
AcDbEntity
  8
0
  6
Continuous
 62
     7
370
    15
100
AcDbLine
 10
239.3297547178
 20
71.4877157427
 30
0.0
 11
239.3297547178
 21
70.2939047064
 31
0.0
  0
LINE
  5
3DD
330
1F
100
AcDbEntity
  8
0
  6
Continuous
 62
     7
370
    15
100
AcDbLine
 10
247.7533260033
 20
71.1528199034
 30
0.0
 11
246.3270293597
 21
69.7607106541
 31
0.0
  0
LINE
  5
3DE
330
1F
100
AcDbEntity
  8
0
  6
Continuous
 62
     7
370
    15
100
AcDbLine
 10
247.7533260033
 20
72.8671545463
 30
0.0
 11
247.7533260033
 21
71.1528199034
 31
0.0
  0
LINE
  5
3DF
330
1F
100
AcDbEntity
  8
0
  6
Continuous
 62
     7
370
    15
100
AcDbLine
 10
242.2699357153
 20
72.6430878888
 30
0.0
 11
240.8436390718
 21
71.2509786396
 31
0.0
  0
LINE
  5
3E0
330
1F
100
AcDbEntity
  8
0
  6
Continuous
 62
     7
370
    15
100
AcDbLine
 10
242.2699357153
 20
74.3574225317
 30
0.0
 11
242.2699357153
 21
72.6430878888
 31
0.0
  0
LINE
  5
3E1
330
1F
100
AcDbEntity
  8
0
  6
Continuous
 62
     7
370
    15
100
AcDbLine
 10
200.4369587455
 20
84.0595602527
 30
0.0
 11
200.4369587455
 21
82.2326483308
 31
0.0
  0
LINE
  5
3E2
330
1F
100
AcDbEntity
  8
0
  6
Continuous
 62
     7
370
    15
100
AcDbLine
 10
201.4982605419
 20
85.4382902125
 30
0.0
 11
201.4982605419
 21
85.0954232361
 31
0.0
  0
LINE
  5
3E3
330
1F
100
AcDbEntity
  8
0
  6
Continuous
 62
     7
370
    15
100
AcDbLine
 10
203.8861895324
 20
83.0749676372
 30
0.0
 11
203.8861895324
 21
84.7893022801
 31
0.0
  0
LINE
  5
3E4
330
1F
100
AcDbEntity
  8
0
  6
Continuous
 62
     7
370
    15
100
AcDbLine
 10
209.3695814677
 20
81.584699204
 30
0.0
 11
209.3695814677
 21
83.2990338469
 31
0.0
  0
LINE
  5
3E5
330
1F
100
AcDbEntity
  8
0
  6
Continuous
 62
     7
370
    15
100
AcDbLine
 10
214.8529737325
 20
80.0944306813
 30
0.0
 11
214.8529737325
 21
81.8087653242
 31
0.0
  0
LINE
  5
3E6
330
1F
100
AcDbEntity
  8
0
  6
Continuous
 62
     7
370
    15
100
AcDbLine
 10
220.3363666562
 20
78.6041619796
 30
0.0
 11
220.3363666562
 21
80.3184966225
 31
0.0
  0
LINE
  5
3E7
330
1F
100
AcDbEntity
  8
0
  6
Continuous
 62
     7
370
    15
100
AcDbLine
 10
225.8197595799
 20
77.1138932778
 30
0.0
 11
225.8197595799
 21
78.8282279207
 31
0.0
  0
LINE
  5
3E8
330
1F
100
AcDbEntity
  8
0
  6
Continuous
 62
     7
370
    15
100
AcDbLine
 10
231.3031498679
 20
77.3379599353
 30
0.0
 11
231.3031498679
 21
75.6236252924
 31
0.0
  0
LINE
  5
3E9
330
1F
100
AcDbEntity
  8
0
  6
Continuous
 62
     7
370
    15
100
AcDbLine
 10
236.7865427916
 20
75.8476912335
 30
0.0
 11
236.7865427916
 21
74.1333565906
 31
0.0
  0
LINE
  5
3EA
330
1F
100
AcDbEntity
  8
0
  6
Continuous
 62
     7
370
    15
100
AcDbLine
 10
250.6935066531
 20
74.022526353
 30
0.0
 11
249.2672103573
 21
72.6304174432
 31
0.0
  0
LINE
  5
3EB
330
1F
100
AcDbEntity
  8
0
  6
Continuous
 62
     7
370
    15
100
AcDbLine
 10
250.6935066531
 20
75.7368609959
 30
0.0
 11
250.6935066531
 21
74.022526353
 31
0.0
  0
LINE
  5
3EC
330
1F
100
AcDbEntity
  8
0
  6
Continuous
 62
     7
370
    15
100
AcDbLine
 10
236.7865427916
 20
74.1333565906
 30
0.0
 11
235.3602461481
 21
72.7412473413
 31
0.0
  0
LINE
  5
3ED
330
1F
100
AcDbEntity
  8
0
  6
Continuous
 62
     7
370
    15
100
AcDbLine
 10
245.2101163652
 20
75.5127943385
 30
0.0
 11
243.7838200693
 21
74.1206854286
 31
0.0
  0
LINE
  5
3EE
330
1F
100
AcDbEntity
  8
0
  6
Continuous
 62
     7
370
    15
100
AcDbLine
 10
245.2101163652
 20
77.2271289814
 30
0.0
 11
245.2101163652
 21
75.5127943385
 31
0.0
  0
LINE
  5
3EF
330
1F
100
AcDbEntity
  8
0
  6
Continuous
 62
     7
370
    15
100
AcDbLine
 10
231.3031498679
 20
75.6236252924
 30
0.0
 11
229.8768532243
 21
74.2315160431
 31
0.0
  0
LINE
  5
3F0
330
1F
100
AcDbEntity
  8
0
  6
Continuous
 62
     7
370
    15
100
AcDbLine
 10
203.3771393953
 20
86.9292667023
 30
0.0
 11
203.3771393953
 21
85.1023547805
 31
0.0
  0
LINE
  5
3F1
330
1F
100
AcDbEntity
  8
0
  6
Continuous
 62
     7
370
    15
100
AcDbLine
 10
204.4384411917
 20
88.3079966622
 30
0.0
 11
204.4384411917
 21
87.9651296857
 31
0.0
  0
LINE
  5
3F2
330
1F
100
AcDbEntity
  8
0
  6
Continuous
 62
     7
370
    15
100
AcDbLine
 10
206.8263701822
 20
85.9446740868
 30
0.0
 11
206.8263701822
 21
87.6590087297
 31
0.0
  0
LINE
  5
3F3
330
1F
100
AcDbEntity
  8
0
  6
Continuous
 62
     7
370
    15
100
AcDbLine
 10
212.3097621175
 20
84.4544056537
 30
0.0
 11
212.3097621175
 21
86.1687402966
 31
0.0
  0
LINE
  5
3F4
330
1F
100
AcDbEntity
  8
0
  6
Continuous
 62
     7
370
    15
100
AcDbLine
 10
217.7931543823
 20
82.964137131
 30
0.0
 11
217.7931543823
 21
84.6784717739
 31
0.0
  0
LINE
  5
3F5
330
1F
100
AcDbEntity
  8
0
  6
Continuous
 62
     7
370
    15
100
AcDbLine
 10
223.276547306
 20
81.4738684292
 30
0.0
 11
223.276547306
 21
83.1882030721
 31
0.0
  0
LINE
  5
3F6
330
1F
100
AcDbEntity
  8
0
  6
Continuous
 62
     7
370
    15
100
AcDbLine
 10
228.7599402298
 20
79.9835997274
 30
0.0
 11
228.7599402298
 21
81.6979343703
 31
0.0
  0
LINE
  5
3F7
330
1F
100
AcDbEntity
  8
0
  6
Continuous
 62
     7
370
    15
100
AcDbLine
 10
234.2433305177
 20
80.2076663849
 30
0.0
 11
234.2433305177
 21
78.493331742
 31
0.0
  0
LINE
  5
3F8
330
1F
100
AcDbEntity
  8
0
  6
Continuous
 62
     7
370
    15
100
AcDbLine
 10
239.7267234414
 20
78.7173976831
 30
0.0
 11
239.7267234414
 21
77.0030630402
 31
0.0
  0
LINE
  5
3F9
330
1F
100
AcDbEntity
  8
0
  6
Continuous
 62
     7
370
    15
100
AcDbLine
 10
253.6336879984
 20
76.8922334814
 30
0.0
 11
252.2073910071
 21
75.5001238928
 31
0.0
  0
LINE
  5
3FA
330
1F
100
AcDbEntity
  8
0
  6
Continuous
 62
     7
370
    15
100
AcDbLine
 10
253.6336879984
 20
78.6065681244
 30
0.0
 11
253.6336879984
 21
76.8922334814
 31
0.0
  0
LINE
  5
3FB
330
1F
100
AcDbEntity
  8
0
  6
Continuous
 62
     7
370
    15
100
AcDbLine
 10
239.7267234414
 20
77.0030630402
 30
0.0
 11
238.3004271456
 21
75.6109541304
 31
0.0
  0
LINE
  5
3FC
330
1F
100
AcDbEntity
  8
0
  6
Continuous
 62
     7
370
    15
100
AcDbLine
 10
225.8197595799
 20
77.1138932778
 30
0.0
 11
224.3934629364
 21
75.7217840285
 31
0.0
  0
LINE
  5
3FD
330
1F
100
AcDbEntity
  8
0
  6
Continuous
 62
     7
370
    15
100
AcDbLine
 10
248.1502977104
 20
78.3825014669
 30
0.0
 11
246.7240007192
 21
76.9903918782
 31
0.0
  0
LINE
  5
3FE
330
1F
100
AcDbEntity
  8
0
  6
Continuous
 62
     7
370
    15
100
AcDbLine
 10
248.1502977104
 20
80.0968361098
 30
0.0
 11
248.1502977104
 21
78.3825014669
 31
0.0
  0
LINE
  5
3FF
330
1F
100
AcDbEntity
  8
0
  6
Continuous
 62
     7
370
    15
100
AcDbLine
 10
234.2433305177
 20
78.493331742
 30
0.0
 11
232.8170342219
 21
77.1012228321
 31
0.0
  0
LINE
  5
400
330
1F
100
AcDbEntity
  8
0
  6
Continuous
 62
     7
370
    15
100
AcDbLine
 10
220.3363666562
 20
78.6041619796
 30
0.0
 11
218.9100700127
 21
77.2120527303
 31
0.0
  0
LINE
  5
401
330
1F
100
AcDbEntity
  8
0
  6
Continuous
 62
     7
370
    15
100
AcDbLine
 10
206.3173207406
 20
89.7989738307
 30
0.0
 11
206.3173207406
 21
87.9720619089
 31
0.0
  0
LINE
  5
402
330
1F
100
AcDbEntity
  8
0
  6
Continuous
 62
     7
370
    15
100
AcDbLine
 10
207.378622537
 20
91.1777037906
 30
0.0
 11
207.378622537
 21
90.8348368141
 31
0.0
  0
LINE
  5
403
330
1F
100
AcDbEntity
  8
0
  6
Continuous
 62
     7
370
    15
100
AcDbLine
 10
209.7665515275
 20
88.8143812152
 30
0.0
 11
209.7665515275
 21
90.5287158581
 31
0.0
  0
LINE
  5
404
330
1F
100
AcDbEntity
  8
0
  6
Continuous
 62
     7
370
    15
100
AcDbLine
 10
215.2499434628
 20
87.3241127821
 30
0.0
 11
215.2499434628
 21
89.038447425
 31
0.0
  0
LINE
  5
405
330
1F
100
AcDbEntity
  8
0
  6
Continuous
 62
     7
370
    15
100
AcDbLine
 10
220.7333357276
 20
85.8338442594
 30
0.0
 11
220.7333357276
 21
87.5481789023
 31
0.0
  0
LINE
  5
406
330
1F
100
AcDbEntity
  8
0
  6
Continuous
 62
     7
370
    15
100
AcDbLine
 10
226.2167286513
 20
84.3435755576
 30
0.0
 11
226.2167286513
 21
86.0579102005
 31
0.0
  0
LINE
  5
407
330
1F
100
AcDbEntity
  8
0
  6
Continuous
 62
     7
370
    15
100
AcDbLine
 10
231.700121575
 20
82.8533068558
 30
0.0
 11
231.700121575
 21
84.5676414987
 31
0.0
  0
LINE
  5
408
330
1F
100
AcDbEntity
  8
0
  6
Continuous
 62
     7
370
    15
100
AcDbLine
 10
237.183511863
 20
83.0773735133
 30
0.0
 11
237.183511863
 21
81.3630388704
 31
0.0
  0
LINE
  5
409
330
1F
100
AcDbEntity
  8
0
  6
Continuous
 62
     7
370
    15
100
AcDbLine
 10
242.6669047867
 20
81.5871048115
 30
0.0
 11
242.6669047867
 21
79.8727701686
 31
0.0
  0
LINE
  5
40A
330
1F
100
AcDbEntity
  8
0
  6
Continuous
 62
     7
370
    15
100
AcDbLine
 10
256.5738693436
 20
79.7619406098
 30
0.0
 11
255.1475723524
 21
78.3698310212
 31
0.0
  0
LINE
  5
40B
330
1F
100
AcDbEntity
  8
0
  6
Continuous
 62
     7
370
    15
100
AcDbLine
 10
256.5738693436
 20
81.4762752528
 30
0.0
 11
256.5738693436
 21
79.7619406098
 31
0.0
  0
LINE
  5
40C
330
1F
100
AcDbEntity
  8
0
  6
Continuous
 62
     7
370
    15
100
AcDbLine
 10
242.6669047867
 20
79.8727701686
 30
0.0
 11
241.2406077954
 21
78.48066058
 31
0.0
  0
LINE
  5
40D
330
1F
100
AcDbEntity
  8
0
  6
Continuous
 62
     7
370
    15
100
AcDbLine
 10
228.7599402298
 20
79.9835997274
 30
0.0
 11
227.3336439339
 21
78.5914908176
 31
0.0
  0
LINE
  5
40E
330
1F
100
AcDbEntity
  8
0
  6
Continuous
 62
     7
370
    15
100
AcDbLine
 10
214.8529737325
 20
80.0944306813
 30
0.0
 11
213.4266770889
 21
78.7023214321
 31
0.0
  0
LINE
  5
40F
330
1F
100
AcDbEntity
  8
0
  6
Continuous
 62
     7
370
    15
100
AcDbLine
 10
251.0904790557
 20
81.2522085953
 30
0.0
 11
249.6641820644
 21
79.8600990066
 31
0.0
  0
LINE
  5
410
330
1F
100
AcDbEntity
  8
0
  6
Continuous
 62
     7
370
    15
100
AcDbLine
 10
251.0904790557
 20
82.9665432382
 30
0.0
 11
251.0904790557
 21
81.2522085953
 31
0.0
  0
LINE
  5
411
330
1F
100
AcDbEntity
  8
0
  6
Continuous
 62
     7
370
    15
100
AcDbLine
 10
237.183511863
 20
81.3630388704
 30
0.0
 11
235.7572148717
 21
79.9709292818
 31
0.0
  0
LINE
  5
412
330
1F
100
AcDbEntity
  8
0
  6
Continuous
 62
     7
370
    15
100
AcDbLine
 10
223.276547306
 20
81.4738684292
 30
0.0
 11
221.8502510102
 21
80.0817595193
 31
0.0
  0
LINE
  5
413
330
1F
100
AcDbEntity
  8
0
  6
Continuous
 62
     7
370
    15
100
AcDbLine
 10
209.3695814677
 20
81.584699204
 30
0.0
 11
207.9432848241
 21
80.1925899548
 31
0.0
  0
LINE
  5
414
330
1F
100
AcDbEntity
  8
0
  6
Continuous
 62
     7
370
    15
100
AcDbLine
 10
209.2575020858
 20
92.6686809591
 30
0.0
 11
209.2575020858
 21
90.8417690373
 31
0.0
  0
LINE
  5
415
330
1F
100
AcDbEntity
  8
0
  6
Continuous
 62
     7
370
    15
100
AcDbLine
 10
210.3188038823
 20
94.047410919
 30
0.0
 11
210.3188038823
 21
93.7045439425
 31
0.0
  0
LINE
  5
416
330
1F
100
AcDbEntity
  8
0
  6
Continuous
 62
     7
370
    15
100
AcDbLine
 10
212.7067328727
 20
91.6840883436
 30
0.0
 11
212.7067328727
 21
93.3984229865
 31
0.0
  0
LINE
  5
417
330
1F
100
AcDbEntity
  8
0
  6
Continuous
 62
     7
370
    15
100
AcDbLine
 10
218.190124808
 20
90.1938199105
 30
0.0
 11
218.190124808
 21
91.9081545534
 31
0.0
  0
LINE
  5
418
330
1F
100
AcDbEntity
  8
0
  6
Continuous
 62
     7
370
    15
100
AcDbLine
 10
223.6735170728
 20
88.7035513878
 30
0.0
 11
223.6735170728
 21
90.4178860307
 31
0.0
  0
LINE
  5
419
330
1F
100
AcDbEntity
  8
0
  6
Continuous
 62
     7
370
    15
100
AcDbLine
 10
229.1569099966
 20
87.213282686
 30
0.0
 11
229.1569099966
 21
88.9276173289
 31
0.0
  0
LINE
  5
41A
330
1F
100
AcDbEntity
  8
0
  6
Continuous
 62
     7
370
    15
100
AcDbLine
 10
234.6403029203
 20
85.7230139842
 30
0.0
 11
234.6403029203
 21
87.4373486271
 31
0.0
  0
LINE
  5
41B
330
1F
100
AcDbEntity
  8
0
  6
Continuous
 62
     7
370
    15
100
AcDbLine
 10
240.1236932082
 20
85.9470806417
 30
0.0
 11
240.1236932082
 21
84.2327459988
 31
0.0
  0
LINE
  5
41C
330
1F
100
AcDbEntity
  8
0
  6
Continuous
 62
     7
370
    15
100
AcDbLine
 10
245.607086132
 20
84.45681194
 30
0.0
 11
245.607086132
 21
82.742477297
 31
0.0
  0
LINE
  5
41D
330
1F
100
AcDbEntity
  8
0
  6
Continuous
 62
     7
370
    15
100
AcDbLine
 10
259.5140499935
 20
82.6316470595
 30
0.0
 11
259.5140499935
 21
84.3459817024
 31
0.0
  0
LINE
  5
41E
330
1F
100
AcDbEntity
  8
0
  6
Continuous
 62
     7
370
    15
100
AcDbLine
 10
259.5140499935
 20
82.6316470595
 30
0.0
 11
258.0877530022
 21
81.2395374709
 31
0.0
  0
LINE
  5
41F
330
1F
100
AcDbEntity
  8
0
  6
Continuous
 62
     7
370
    15
100
AcDbLine
 10
198.5580795444
 20
82.225716447
 30
0.0
 11
197.8761290961
 21
81.5601119034
 31
0.0
  0
LINE
  5
420
330
1F
100
AcDbEntity
  8
0
  6
Continuous
 62
     7
370
    15
100
AcDbLine
 10
245.607086132
 20
82.742477297
 30
0.0
 11
244.1807891407
 21
81.3503677084
 31
0.0
  0
LINE
  5
421
330
1F
100
AcDbEntity
  8
0
  6
Continuous
 62
     7
370
    15
100
AcDbLine
 10
231.700121575
 20
82.8533068558
 30
0.0
 11
230.2738245838
 21
81.4611972672
 31
0.0
  0
LINE
  5
422
330
1F
100
AcDbEntity
  8
0
  6
Continuous
 62
     7
370
    15
100
AcDbLine
 10
217.7931543823
 20
82.964137131
 30
0.0
 11
216.3668580865
 21
81.5720282211
 31
0.0
  0
LINE
  5
423
330
1F
100
AcDbEntity
  8
0
  6
Continuous
 62
     7
370
    15
100
AcDbLine
 10
203.8861895324
 20
83.0749676372
 30
0.0
 11
202.4598928888
 21
81.6828583879
 31
0.0
  0
LINE
  5
424
330
1F
100
AcDbEntity
  8
0
  6
Continuous
 62
     7
370
    15
100
AcDbLine
 10
201.4982605419
 20
85.0954232361
 30
0.0
 11
198.9728632225
 21
82.6305580327
 31
0.0
  0
LINE
  5
425
330
1F
100
AcDbEntity
  8
0
  6
Continuous
 62
     7
370
    15
100
AcDbLine
 10
254.0306597055
 20
84.1219150449
 30
0.0
 11
254.0306597055
 21
85.8362496878
 31
0.0
  0
LINE
  5
426
330
1F
100
AcDbEntity
  8
0
  6
Continuous
 62
     7
370
    15
100
AcDbLine
 10
254.0306597055
 20
84.1219150449
 30
0.0
 11
252.6043627143
 21
82.7298054563
 31
0.0
  0
LINE
  5
427
330
1F
100
AcDbEntity
  8
0
  6
Continuous
 62
     7
370
    15
100
AcDbLine
 10
240.1236932082
 20
84.2327459988
 30
0.0
 11
238.697396217
 21
82.8406364102
 31
0.0
  0
LINE
  5
428
330
1F
100
AcDbEntity
  8
0
  6
Continuous
 62
     7
370
    15
100
AcDbLine
 10
226.2167286513
 20
84.3435755576
 30
0.0
 11
224.79043166
 21
82.951465969
 31
0.0
  0
LINE
  5
429
330
1F
100
AcDbEntity
  8
0
  6
Continuous
 62
     7
370
    15
100
AcDbLine
 10
212.3097621175
 20
84.4544056537
 30
0.0
 11
210.8834658217
 21
83.0622967438
 31
0.0
  0
LINE
  5
42A
330
1F
100
AcDbEntity
  8
0
  6
Continuous
 62
     7
370
    15
100
AcDbLine
 10
212.1976827357
 20
93.7114754869
 30
0.0
 11
212.1976827357
 21
95.5383874087
 31
0.0
  0
LINE
  5
42B
330
1F
100
AcDbEntity
  8
0
  6
Continuous
 62
     7
370
    15
100
AcDbLine
 10
213.2589845321
 20
96.5742503922
 30
0.0
 11
213.2589845321
 21
96.9171173686
 31
0.0
  0
LINE
  5
42C
330
1F
100
AcDbEntity
  8
0
  6
Continuous
 62
     7
370
    15
100
AcDbLine
 10
215.6469135226
 20
96.2681294362
 30
0.0
 11
215.6469135226
 21
94.5537947932
 31
0.0
  0
LINE
  5
42D
330
1F
100
AcDbEntity
  8
0
  6
Continuous
 62
     7
370
    15
100
AcDbLine
 10
221.1303054579
 20
94.777861003
 30
0.0
 11
221.1303054579
 21
93.0635263601
 31
0.0
  0
LINE
  5
42E
330
1F
100
AcDbEntity
  8
0
  6
Continuous
 62
     7
370
    15
100
AcDbLine
 10
226.6136977227
 20
93.2875924803
 30
0.0
 11
226.6136977227
 21
91.5732578374
 31
0.0
  0
LINE
  5
42F
330
1F
100
AcDbEntity
  8
0
  6
Continuous
 62
     7
370
    15
100
AcDbLine
 10
232.0970906464
 20
91.7973237786
 30
0.0
 11
232.0970906464
 21
90.0829891356
 31
0.0
  0
LINE
  5
430
330
1F
100
AcDbEntity
  8
0
  6
Continuous
 62
     7
370
    15
100
AcDbLine
 10
237.5804835701
 20
90.3070550768
 30
0.0
 11
237.5804835701
 21
88.5927204339
 31
0.0
  0
LINE
  5
431
330
1F
100
AcDbEntity
  8
0
  6
Continuous
 62
     7
370
    15
100
AcDbLine
 10
243.0638738581
 20
87.1024524484
 30
0.0
 11
243.0638738581
 21
88.8167870914
 31
0.0
  0
LINE
  5
432
330
1F
100
AcDbEntity
  8
0
  6
Continuous
 62
     7
370
    15
100
AcDbLine
 10
248.5472667818
 20
85.6121837467
 30
0.0
 11
248.5472667818
 21
87.3265183896
 31
0.0
  0
LINE
  5
433
330
1F
100
AcDbEntity
  8
0
  6
Continuous
 62
     7
370
    15
100
AcDbLine
 10
262.4542306433
 20
85.5013535091
 30
0.0
 11
262.4542306433
 21
87.215688152
 31
0.0
  0
LINE
  5
434
330
1F
100
AcDbEntity
  8
0
  6
Continuous
 62
     7
370
    15
100
AcDbLine
 10
262.4542306433
 20
85.5013535091
 30
0.0
 11
261.0279336521
 21
84.1092439205
 31
0.0
  0
LINE
  5
435
330
1F
100
AcDbEntity
  8
0
  6
Continuous
 62
     7
370
    15
100
AcDbLine
 10
248.5472667818
 20
85.6121837467
 30
0.0
 11
247.1209697905
 21
84.2200741581
 31
0.0
  0
LINE
  5
436
330
1F
100
AcDbEntity
  8
0
  6
Continuous
 62
     7
370
    15
100
AcDbLine
 10
234.6403029203
 20
85.7230139842
 30
0.0
 11
233.214005929
 21
84.3309043956
 31
0.0
  0
LINE
  5
437
330
1F
100
AcDbEntity
  8
0
  6
Continuous
 62
     7
370
    15
100
AcDbLine
 10
220.7333357276
 20
85.8338442594
 30
0.0
 11
219.3070387363
 21
84.4417346707
 31
0.0
  0
LINE
  5
438
330
1F
100
AcDbEntity
  8
0
  6
Continuous
 62
     7
370
    15
100
AcDbLine
 10
206.8263701822
 20
85.9446740868
 30
0.0
 11
205.4000738864
 21
84.5525651769
 31
0.0
  0
LINE
  5
439
330
1F
100
AcDbEntity
  8
0
  6
Continuous
 62
     7
370
    15
100
AcDbLine
 10
204.4384411917
 20
87.9651296857
 30
0.0
 11
201.9130443939
 21
85.5002649915
 31
0.0
  0
LINE
  5
43A
330
1F
100
AcDbEntity
  8
0
  6
Continuous
 62
     7
370
    15
100
AcDbLine
 10
256.9708403554
 20
86.9916214945
 30
0.0
 11
256.9708403554
 21
88.7059561375
 31
0.0
  0
LINE
  5
43B
330
1F
100
AcDbEntity
  8
0
  6
Continuous
 62
     7
370
    15
100
AcDbLine
 10
256.9708403554
 20
86.9916214945
 30
0.0
 11
255.5445433641
 21
85.5995119059
 31
0.0
  0
LINE
  5
43C
330
1F
100
AcDbEntity
  8
0
  6
Continuous
 62
     7
370
    15
100
AcDbLine
 10
243.0638738581
 20
87.1024524484
 30
0.0
 11
241.6375768668
 21
85.7103428598
 31
0.0
  0
LINE
  5
43D
330
1F
100
AcDbEntity
  8
0
  6
Continuous
 62
     7
370
    15
100
AcDbLine
 10
229.1569099966
 20
87.213282686
 30
0.0
 11
227.7306130053
 21
85.8211730974
 31
0.0
  0
LINE
  5
43E
330
1F
100
AcDbEntity
  8
0
  6
Continuous
 62
     7
370
    15
100
AcDbLine
 10
215.2499434628
 20
87.3241127821
 30
0.0
 11
213.8236464715
 21
85.9320031934
 31
0.0
  0
LINE
  5
43F
330
1F
100
AcDbEntity
  8
0
  6
Continuous
 62
     7
370
    15
100
AcDbLine
 10
215.1378633855
 20
96.5811819366
 30
0.0
 11
215.1378633855
 21
98.4080938584
 31
0.0
  0
LINE
  5
440
330
1F
100
AcDbEntity
  8
0
  6
Continuous
 62
     7
370
    15
100
AcDbLine
 10
216.1991651819
 20
99.4439568418
 30
0.0
 11
216.1991651819
 21
99.7868238183
 31
0.0
  0
LINE
  5
441
330
1F
100
AcDbEntity
  8
0
  6
Continuous
 62
     7
370
    15
100
AcDbLine
 10
218.5870941724
 20
99.1378358858
 30
0.0
 11
218.5870941724
 21
97.4235012429
 31
0.0
  0
LINE
  5
442
330
1F
100
AcDbEntity
  8
0
  6
Continuous
 62
     7
370
    15
100
AcDbLine
 10
224.0704861077
 20
97.6475674527
 30
0.0
 11
224.0704861077
 21
95.9332328097
 31
0.0
  0
LINE
  5
443
330
1F
100
AcDbEntity
  8
0
  6
Continuous
 62
     7
370
    15
100
AcDbLine
 10
229.5538783725
 20
96.15729893
 30
0.0
 11
229.5538783725
 21
94.4429642871
 31
0.0
  0
LINE
  5
444
330
1F
100
AcDbEntity
  8
0
  6
Continuous
 62
     7
370
    15
100
AcDbLine
 10
235.0372712962
 20
94.6670302282
 30
0.0
 11
235.0372712962
 21
92.9526955853
 31
0.0
  0
LINE
  5
445
330
1F
100
AcDbEntity
  8
0
  6
Continuous
 62
     7
370
    15
100
AcDbLine
 10
240.5206642199
 20
93.1767615264
 30
0.0
 11
240.5206642199
 21
91.4624268835
 31
0.0
  0
LINE
  5
446
330
1F
100
AcDbEntity
  8
0
  6
Continuous
 62
     7
370
    15
100
AcDbLine
 10
246.0040545079
 20
89.9721588981
 30
0.0
 11
246.0040545079
 21
91.686493541
 31
0.0
  0
LINE
  5
447
330
1F
100
AcDbEntity
  8
0
  6
Continuous
 62
     7
370
    15
100
AcDbLine
 10
251.4874474316
 20
88.4818901963
 30
0.0
 11
251.4874474316
 21
90.1962248392
 31
0.0
  0
LINE
  5
448
330
1F
100
AcDbEntity
  8
0
  6
Continuous
 62
     7
370
    15
100
AcDbLine
 10
265.3944112931
 20
88.3710599588
 30
0.0
 11
265.3944112931
 21
90.0853946017
 31
0.0
  0
LINE
  5
449
330
1F
100
AcDbEntity
  8
0
  6
Continuous
 62
     7
370
    15
100
AcDbLine
 10
265.3944112931
 20
88.3710599588
 30
0.0
 11
263.9681143019
 21
86.9789503701
 31
0.0
  0
LINE
  5
44A
330
1F
100
AcDbEntity
  8
0
  6
Continuous
 62
     7
370
    15
100
AcDbLine
 10
251.4874474316
 20
88.4818901963
 30
0.0
 11
250.0611504404
 21
87.0897806077
 31
0.0
  0
LINE
  5
44B
330
1F
100
AcDbEntity
  8
0
  6
Continuous
 62
     7
370
    15
100
AcDbLine
 10
237.5804835701
 20
88.5927204339
 30
0.0
 11
236.1541865789
 21
87.2006108453
 31
0.0
  0
LINE
  5
44C
330
1F
100
AcDbEntity
  8
0
  6
Continuous
 62
     7
370
    15
100
AcDbLine
 10
223.6735170728
 20
88.7035513878
 30
0.0
 11
222.2472200816
 21
87.3114417992
 31
0.0
  0
LINE
  5
44D
330
1F
100
AcDbEntity
  8
0
  6
Continuous
 62
     7
370
    15
100
AcDbLine
 10
209.7665515275
 20
88.8143812152
 30
0.0
 11
208.3402545362
 21
87.4222716266
 31
0.0
  0
LINE
  5
44E
330
1F
100
AcDbEntity
  8
0
  6
Continuous
 62
     7
370
    15
100
AcDbLine
 10
207.378622537
 20
90.8348368141
 30
0.0
 11
204.8532250438
 21
88.3699714411
 31
0.0
  0
LINE
  5
44F
330
1F
100
AcDbEntity
  8
0
  6
Continuous
 62
     7
370
    15
100
AcDbLine
 10
259.9110210052
 20
89.8613279442
 30
0.0
 11
259.9110210052
 21
91.5756625871
 31
0.0
  0
LINE
  5
450
330
1F
100
AcDbEntity
  8
0
  6
Continuous
 62
     7
370
    15
100
AcDbLine
 10
259.9110210052
 20
89.8613279442
 30
0.0
 11
258.4847240139
 21
88.4692183556
 31
0.0
  0
LINE
  5
451
330
1F
100
AcDbEntity
  8
0
  6
Continuous
 62
     7
370
    15
100
AcDbLine
 10
246.0040545079
 20
89.9721588981
 30
0.0
 11
244.5777575166
 21
88.5800493095
 31
0.0
  0
LINE
  5
452
330
1F
100
AcDbEntity
  8
0
  6
Continuous
 62
     7
370
    15
100
AcDbLine
 10
232.0970906464
 20
90.0829891356
 30
0.0
 11
230.6707936551
 21
88.690879547
 31
0.0
  0
LINE
  5
453
330
1F
100
AcDbEntity
  8
0
  6
Continuous
 62
     7
370
    15
100
AcDbLine
 10
218.190124808
 20
90.1938199105
 30
0.0
 11
216.7638278168
 21
88.8017103218
 31
0.0
  0
LINE
  5
454
330
1F
100
AcDbEntity
  8
0
  6
Continuous
 62
     7
370
    15
100
AcDbLine
 10
218.0780440353
 20
99.4508883862
 30
0.0
 11
218.0780440353
 21
101.277800308
 31
0.0
  0
LINE
  5
455
330
1F
100
AcDbEntity
  8
0
  6
Continuous
 62
     7
370
    15
100
AcDbLine
 10
219.1393458318
 20
102.3136632914
 30
0.0
 11
219.1393458318
 21
102.6565302679
 31
0.0
  0
LINE
  5
456
330
1F
100
AcDbEntity
  8
0
  6
Continuous
 62
     7
370
    15
100
AcDbLine
 10
221.5272748222
 20
102.0075423354
 30
0.0
 11
221.5272748222
 21
100.2932076925
 31
0.0
  0
LINE
  5
457
330
1F
100
AcDbEntity
  8
0
  6
Continuous
 62
     7
370
    15
100
AcDbLine
 10
227.0106667575
 20
100.5172739023
 30
0.0
 11
227.0106667575
 21
98.8029392594
 31
0.0
  0
LINE
  5
458
330
1F
100
AcDbEntity
  8
0
  6
Continuous
 62
     7
370
    15
100
AcDbLine
 10
232.4940590223
 20
99.0270053796
 30
0.0
 11
232.4940590223
 21
97.3126707367
 31
0.0
  0
LINE
  5
459
330
1F
100
AcDbEntity
  8
0
  6
Continuous
 62
     7
370
    15
100
AcDbLine
 10
237.9774519461
 20
97.5367366778
 30
0.0
 11
237.9774519461
 21
95.8224020349
 31
0.0
  0
LINE
  5
45A
330
1F
100
AcDbEntity
  8
0
  6
Continuous
 62
     7
370
    15
100
AcDbLine
 10
243.4608448698
 20
96.0464679761
 30
0.0
 11
243.4608448698
 21
94.3321333332
 31
0.0
  0
LINE
  5
45B
330
1F
100
AcDbEntity
  8
0
  6
Continuous
 62
     7
370
    15
100
AcDbLine
 10
248.9442351577
 20
92.8418653477
 30
0.0
 11
248.9442351577
 21
94.5561999906
 31
0.0
  0
LINE
  5
45C
330
1F
100
AcDbEntity
  8
0
  6
Continuous
 62
     7
370
    15
100
AcDbLine
 10
254.4276280815
 20
91.351596646
 30
0.0
 11
254.4276280815
 21
93.0659312889
 31
0.0
  0
LINE
  5
45D
330
1F
100
AcDbEntity
  8
0
  6
Continuous
 62
     7
370
    15
100
AcDbLine
 10
268.334591943
 20
91.2407664084
 30
0.0
 11
268.334591943
 21
92.9551010513
 31
0.0
  0
LINE
  5
45E
330
1F
100
AcDbEntity
  8
0
  6
Continuous
 62
     7
370
    15
100
AcDbLine
 10
268.334591943
 20
91.2407664084
 30
0.0
 11
266.9082949517
 21
89.8486568198
 31
0.0
  0
LINE
  5
45F
330
1F
100
AcDbEntity
  8
0
  6
Continuous
 62
     7
370
    15
100
AcDbLine
 10
254.4276280815
 20
91.351596646
 30
0.0
 11
253.0013310902
 21
89.9594870573
 31
0.0
  0
LINE
  5
460
330
1F
100
AcDbEntity
  8
0
  6
Continuous
 62
     7
370
    15
100
AcDbLine
 10
240.5206642199
 20
91.4624268835
 30
0.0
 11
239.0943672287
 21
90.0703172949
 31
0.0
  0
LINE
  5
461
330
1F
100
AcDbEntity
  8
0
  6
Continuous
 62
     7
370
    15
100
AcDbLine
 10
226.6136977227
 20
91.5732578374
 30
0.0
 11
225.1874007314
 21
90.1811482488
 31
0.0
  0
LINE
  5
462
330
1F
100
AcDbEntity
  8
0
  6
Continuous
 62
     7
370
    15
100
AcDbLine
 10
212.7067328727
 20
91.6840883436
 30
0.0
 11
211.2804358815
 21
90.291978755
 31
0.0
  0
LINE
  5
463
330
1F
100
AcDbEntity
  8
0
  6
Continuous
 62
     7
370
    15
100
AcDbLine
 10
210.3188038823
 20
93.7045439425
 30
0.0
 11
207.793406389
 21
91.2396785695
 31
0.0
  0
LINE
  5
464
330
1F
100
AcDbEntity
  8
0
  6
Continuous
 62
     7
370
    15
100
AcDbLine
 10
262.851201655
 20
92.7310343938
 30
0.0
 11
262.851201655
 21
94.4453690367
 31
0.0
  0
LINE
  5
465
330
1F
100
AcDbEntity
  8
0
  6
Continuous
 62
     7
370
    15
100
AcDbLine
 10
262.851201655
 20
92.7310343938
 30
0.0
 11
261.4249046638
 21
91.3389248052
 31
0.0
  0
LINE
  5
466
330
1F
100
AcDbEntity
  8
0
  6
Continuous
 62
     7
370
    15
100
AcDbLine
 10
248.9442351577
 20
92.8418653477
 30
0.0
 11
247.5179381665
 21
91.4497557591
 31
0.0
  0
LINE
  5
467
330
1F
100
AcDbEntity
  8
0
  6
Continuous
 62
     7
370
    15
100
AcDbLine
 10
235.0372712962
 20
92.9526955853
 30
0.0
 11
233.610974305
 21
91.5605859967
 31
0.0
  0
LINE
  5
468
330
1F
100
AcDbEntity
  8
0
  6
Continuous
 62
     7
370
    15
100
AcDbLine
 10
221.1303054579
 20
93.0635263601
 30
0.0
 11
219.7040084666
 21
91.6714167715
 31
0.0
  0
LINE
  5
469
330
1F
100
AcDbEntity
  8
0
  6
Continuous
 62
     7
370
    15
100
AcDbLine
 10
221.0182246852
 20
102.3205948359
 30
0.0
 11
221.0182246852
 21
104.1475067577
 31
0.0
  0
LINE
  5
46A
330
1F
100
AcDbEntity
  8
0
  6
Continuous
 62
     7
370
    15
100
AcDbLine
 10
222.0795264816
 20
105.1833697411
 30
0.0
 11
222.0795264816
 21
105.5262367176
 31
0.0
  0
LINE
  5
46B
330
1F
100
AcDbEntity
  8
0
  6
Continuous
 62
     7
370
    15
100
AcDbLine
 10
224.4674554721
 20
104.8772487851
 30
0.0
 11
224.4674554721
 21
103.1629141422
 31
0.0
  0
LINE
  5
46C
330
1F
100
AcDbEntity
  8
0
  6
Continuous
 62
     7
370
    15
100
AcDbLine
 10
229.9508474074
 20
103.3869803519
 30
0.0
 11
229.9508474074
 21
101.672645709
 31
0.0
  0
LINE
  5
46D
330
1F
100
AcDbEntity
  8
0
  6
Continuous
 62
     7
370
    15
100
AcDbLine
 10
235.4342396722
 20
101.8967118293
 30
0.0
 11
235.4342396722
 21
100.1823771863
 31
0.0
  0
LINE
  5
46E
330
1F
100
AcDbEntity
  8
0
  6
Continuous
 62
     7
370
    15
100
AcDbLine
 10
240.9176325959
 20
100.4064431275
 30
0.0
 11
240.9176325959
 21
98.6921084846
 31
0.0
  0
LINE
  5
46F
330
1F
100
AcDbEntity
  8
0
  6
Continuous
 62
     7
370
    15
100
AcDbLine
 10
246.4010255196
 20
98.9161744257
 30
0.0
 11
246.4010255196
 21
97.2018397828
 31
0.0
  0
LINE
  5
470
330
1F
100
AcDbEntity
  8
0
  6
Continuous
 62
     7
370
    15
100
AcDbLine
 10
251.8844158076
 20
95.7115717974
 30
0.0
 11
251.8844158076
 21
97.4259064403
 31
0.0
  0
LINE
  5
471
330
1F
100
AcDbEntity
  8
0
  6
Continuous
 62
     7
370
    15
100
AcDbLine
 10
257.3678087313
 20
94.2213030956
 30
0.0
 11
257.3678087313
 21
95.9356377385
 31
0.0
  0
LINE
  5
472
330
1F
100
AcDbEntity
  8
0
  6
Continuous
 62
     7
370
    15
100
AcDbLine
 10
269.9913601064
 20
92.8578229264
 30
0.0
 11
269.8484769924
 21
92.7183646269
 31
0.0
  0
LINE
  5
473
330
1F
100
AcDbEntity
  8
0
  6
Continuous
 62
     7
370
    15
100
AcDbLine
 10
269.4313272864
 20
93.682681392
 30
0.0
 11
269.4313272864
 21
94.0255483685
 31
0.0
  0
LINE
  5
474
330
1F
100
AcDbEntity
  8
0
  6
Continuous
 62
     7
370
    15
100
AcDbLine
 10
269.9913601064
 20
93.530474431
 30
0.0
 11
269.9913601064
 21
92.8578229264
 31
0.0
  0
LINE
  5
475
330
1F
100
AcDbEntity
  8
0
  6
Continuous
 62
     7
370
    15
100
AcDbLine
 10
257.3678087313
 20
94.2213030956
 30
0.0
 11
255.94151174
 21
92.829193507
 31
0.0
  0
LINE
  5
476
330
1F
100
AcDbEntity
  8
0
  6
Continuous
 62
     7
370
    15
100
AcDbLine
 10
243.4608448698
 20
94.3321333332
 30
0.0
 11
242.0345478785
 21
92.9400237445
 31
0.0
  0
LINE
  5
477
330
1F
100
AcDbEntity
  8
0
  6
Continuous
 62
     7
370
    15
100
AcDbLine
 10
229.5538783725
 20
94.4429642871
 30
0.0
 11
228.1275813812
 21
93.0508546984
 31
0.0
  0
LINE
  5
478
330
1F
100
AcDbEntity
  8
0
  6
Continuous
 62
     7
370
    15
100
AcDbLine
 10
269.4313272864
 20
93.682681392
 30
0.0
 11
271.3676018568
 21
93.1564434531
 31
0.0
  0
LINE
  5
479
330
1F
100
AcDbEntity
  8
0
  6
Continuous
 62
     7
370
    15
100
AcDbLine
 10
215.6469135226
 20
94.5537947932
 30
0.0
 11
214.2206165313
 21
93.1616852046
 31
0.0
  0
LINE
  5
47A
330
1F
100
AcDbEntity
  8
0
  6
Continuous
 62
     7
370
    15
100
AcDbLine
 10
222.6749928485
 20
105.5391051447
 30
0.0
 11
222.6749928485
 21
105.7645632757
 31
0.0
  0
LINE
  5
47B
330
1F
100
AcDbEntity
  8
0
  6
Continuous
 62
     7
370
    15
100
AcDbLine
 10
226.1242236354
 20
104.7799706602
 30
0.0
 11
226.1242236354
 21
105.4526221648
 31
0.0
  0
LINE
  5
47C
330
1F
100
AcDbEntity
  8
0
  6
Continuous
 62
     7
370
    15
100
AcDbLine
 10
231.6076155707
 20
103.2897022271
 30
0.0
 11
231.6076155707
 21
103.9623537316
 31
0.0
  0
LINE
  5
47D
330
1F
100
AcDbEntity
  8
0
  6
Continuous
 62
     7
370
    15
100
AcDbLine
 10
237.0910078355
 20
101.7994337044
 30
0.0
 11
237.0910078355
 21
102.4720852089
 31
0.0
  0
LINE
  5
47E
330
1F
100
AcDbEntity
  8
0
  6
Continuous
 62
     7
370
    15
100
AcDbLine
 10
242.5744007593
 20
100.3091650026
 30
0.0
 11
242.5744007593
 21
100.9818165072
 31
0.0
  0
LINE
  5
47F
330
1F
100
AcDbEntity
  8
0
  6
Continuous
 62
     7
370
    15
100
AcDbLine
 10
248.057793683
 20
98.8188963008
 30
0.0
 11
248.057793683
 21
99.4915478054
 31
0.0
  0
LINE
  5
480
330
1F
100
AcDbEntity
  8
0
  6
Continuous
 62
     7
370
    15
100
AcDbLine
 10
253.5411839709
 20
98.00127982
 30
0.0
 11
253.5411839709
 21
97.3286283154
 31
0.0
  0
LINE
  5
481
330
1F
100
AcDbEntity
  8
0
  6
Continuous
 62
     7
370
    15
100
AcDbLine
 10
259.0245768947
 20
96.5110111182
 30
0.0
 11
259.0245768947
 21
95.8383596136
 31
0.0
  0
LINE
  5
482
330
1F
100
AcDbEntity
  8
0
  6
Continuous
 62
     7
370
    15
100
AcDbLine
 10
264.5079698184
 20
95.0207424164
 30
0.0
 11
264.5079698184
 21
94.3480909119
 31
0.0
  0
LINE
  5
483
330
1F
100
AcDbEntity
  8
0
  6
Continuous
 62
     7
370
    15
100
AcDbLine
 10
263.9479369985
 20
95.1729493774
 30
0.0
 11
268.9796720426
 21
93.8054316095
 31
0.0
  0
LINE
  5
484
330
1F
100
AcDbEntity
  8
0
  6
Continuous
 62
     7
370
    15
100
AcDbLine
 10
263.9479369985
 20
95.1729493774
 30
0.0
 11
263.9479369985
 21
95.5158163539
 31
0.0
  0
LINE
  5
485
330
1F
100
AcDbEntity
  8
0
  6
Continuous
 62
     7
370
    15
100
AcDbLine
 10
213.2589845321
 20
96.5742503922
 30
0.0
 11
210.7335877343
 21
94.1093856979
 31
0.0
  0
LINE
  5
486
330
1F
100
AcDbEntity
  8
0
  6
Continuous
 62
     7
370
    15
100
AcDbLine
 10
264.5079698184
 20
94.3480909119
 30
0.0
 11
264.3650867045
 21
94.2086326124
 31
0.0
  0
LINE
  5
487
330
1F
100
AcDbEntity
  8
0
  6
Continuous
 62
     7
370
    15
100
AcDbLine
 10
251.8844158076
 20
95.7115717974
 30
0.0
 11
250.4581188163
 21
94.3194622088
 31
0.0
  0
LINE
  5
488
330
1F
100
AcDbEntity
  8
0
  6
Continuous
 62
     7
370
    15
100
AcDbLine
 10
237.9774519461
 20
95.8224020349
 30
0.0
 11
236.5511549548
 21
94.4302924463
 31
0.0
  0
LINE
  5
489
330
1F
100
AcDbEntity
  8
0
  6
Continuous
 62
     7
370
    15
100
AcDbLine
 10
224.0704861077
 20
95.9332328097
 30
0.0
 11
222.6441891165
 21
94.5411232211
 31
0.0
  0
LINE
  5
48A
330
1F
100
AcDbEntity
  8
0
  6
Continuous
 62
     7
370
    15
100
AcDbLine
 10
258.4645440747
 20
96.6632180792
 30
0.0
 11
263.4962791189
 21
95.2957003112
 31
0.0
  0
LINE
  5
48B
330
1F
100
AcDbEntity
  8
0
  6
Continuous
 62
     7
370
    15
100
AcDbLine
 10
258.4645440747
 20
96.6632180792
 30
0.0
 11
258.4645440747
 21
97.0060850557
 31
0.0
  0
LINE
  5
48C
330
1F
100
AcDbEntity
  8
0
  6
Continuous
 62
     7
370
    15
100
AcDbLine
 10
259.0245768947
 20
95.8383596136
 30
0.0
 11
258.8816937807
 21
95.6989013141
 31
0.0
  0
LINE
  5
48D
330
1F
100
AcDbEntity
  8
0
  6
Continuous
 62
     7
370
    15
100
AcDbLine
 10
246.4010255196
 20
97.2018397828
 30
0.0
 11
244.9747285284
 21
95.8097301942
 31
0.0
  0
LINE
  5
48E
330
1F
100
AcDbEntity
  8
0
  6
Continuous
 62
     7
370
    15
100
AcDbLine
 10
232.4940590223
 20
97.3126707367
 30
0.0
 11
231.0677620311
 21
95.9205611481
 31
0.0
  0
LINE
  5
48F
330
1F
100
AcDbEntity
  8
0
  6
Continuous
 62
     7
370
    15
100
AcDbLine
 10
218.5870941724
 20
97.4235012429
 30
0.0
 11
217.1607971811
 21
96.0313916543
 31
0.0
  0
LINE
  5
490
330
1F
100
AcDbEntity
  8
0
  6
Continuous
 62
     7
370
    15
100
AcDbLine
 10
216.1991651819
 20
99.4439568418
 30
0.0
 11
213.6737683841
 21
96.9790921475
 31
0.0
  0
LINE
  5
491
330
1F
100
AcDbEntity
  8
0
  6
Continuous
 62
     7
370
    15
100
AcDbLine
 10
252.981151151
 20
98.153486781
 30
0.0
 11
258.0128861952
 21
96.785969013
 31
0.0
  0
LINE
  5
492
330
1F
100
AcDbEntity
  8
0
  6
Continuous
 62
     7
370
    15
100
AcDbLine
 10
252.981151151
 20
98.153486781
 30
0.0
 11
252.981151151
 21
98.4963537575
 31
0.0
  0
LINE
  5
493
330
1F
100
AcDbEntity
  8
0
  6
Continuous
 62
     7
370
    15
100
AcDbLine
 10
253.5411839709
 20
97.3286283154
 30
0.0
 11
253.398300857
 21
97.1891700159
 31
0.0
  0
LINE
  5
494
330
1F
100
AcDbEntity
  8
0
  6
Continuous
 62
     7
370
    15
100
AcDbLine
 10
240.9176325959
 20
98.6921084846
 30
0.0
 11
239.4913356046
 21
97.2999988959
 31
0.0
  0
LINE
  5
495
330
1F
100
AcDbEntity
  8
0
  6
Continuous
 62
     7
370
    15
100
AcDbLine
 10
227.0106667575
 20
98.8029392594
 30
0.0
 11
225.5843697663
 21
97.4108296708
 31
0.0
  0
LINE
  5
496
330
1F
100
AcDbEntity
  8
0
  6
Continuous
 62
     7
370
    15
100
AcDbLine
 10
247.497760863
 20
99.6437547664
 30
0.0
 11
252.5294932714
 21
98.2762377148
 31
0.0
  0
LINE
  5
497
330
1F
100
AcDbEntity
  8
0
  6
Continuous
 62
     7
370
    15
100
AcDbLine
 10
247.497760863
 20
99.9866217429
 30
0.0
 11
247.497760863
 21
99.6437547664
 31
0.0
  0
LINE
  5
498
330
1F
100
AcDbEntity
  8
0
  6
Continuous
 62
     7
370
    15
100
AcDbLine
 10
248.057793683
 20
98.8188963008
 30
0.0
 11
247.9149105691
 21
98.6794380013
 31
0.0
  0
LINE
  5
499
330
1F
100
AcDbEntity
  8
0
  6
Continuous
 62
     7
370
    15
100
AcDbLine
 10
235.4342396722
 20
100.1823771863
 30
0.0
 11
234.0079426809
 21
98.7902675977
 31
0.0
  0
LINE
  5
49A
330
1F
100
AcDbEntity
  8
0
  6
Continuous
 62
     7
370
    15
100
AcDbLine
 10
221.5272748222
 20
100.2932076925
 30
0.0
 11
220.100977831
 21
98.9010981039
 31
0.0
  0
LINE
  5
49B
330
1F
100
AcDbEntity
  8
0
  6
Continuous
 62
     7
370
    15
100
AcDbLine
 10
219.1393458318
 20
102.3136632914
 30
0.0
 11
216.613949034
 21
99.8487985972
 31
0.0
  0
LINE
  5
49C
330
1F
100
AcDbEntity
  8
0
  6
Continuous
 62
     7
370
    15
100
AcDbLine
 10
242.0143679393
 20
101.1340234682
 30
0.0
 11
247.0461003477
 21
99.7665064166
 31
0.0
  0
LINE
  5
49D
330
1F
100
AcDbEntity
  8
0
  6
Continuous
 62
     7
370
    15
100
AcDbLine
 10
242.0143679393
 20
101.4768904447
 30
0.0
 11
242.0143679393
 21
101.1340234682
 31
0.0
  0
LINE
  5
49E
330
1F
100
AcDbEntity
  8
0
  6
Continuous
 62
     7
370
    15
100
AcDbLine
 10
242.5744007593
 20
100.3091650026
 30
0.0
 11
242.4315176453
 21
100.1697067031
 31
0.0
  0
LINE
  5
49F
330
1F
100
AcDbEntity
  8
0
  6
Continuous
 62
     7
370
    15
100
AcDbLine
 10
229.9508474074
 20
101.672645709
 30
0.0
 11
228.5245504161
 21
100.2805361204
 31
0.0
  0
LINE
  5
4A0
330
1F
100
AcDbEntity
  8
0
  6
Continuous
 62
     7
370
    15
100
AcDbLine
 10
236.5309750156
 20
102.6242921699
 30
0.0
 11
241.5627087419
 21
101.2567747602
 31
0.0
  0
LINE
  5
4A1
330
1F
100
AcDbEntity
  8
0
  6
Continuous
 62
     7
370
    15
100
AcDbLine
 10
236.5309750156
 20
102.9671591464
 30
0.0
 11
236.5309750156
 21
102.6242921699
 31
0.0
  0
LINE
  5
4A2
330
1F
100
AcDbEntity
  8
0
  6
Continuous
 62
     7
370
    15
100
AcDbLine
 10
237.0910078355
 20
101.7994337044
 30
0.0
 11
236.9481247216
 21
101.6599754049
 31
0.0
  0
LINE
  5
4A3
330
1F
100
AcDbEntity
  8
0
  6
Continuous
 62
     7
370
    15
100
AcDbLine
 10
224.4674554721
 20
103.1629141422
 30
0.0
 11
223.0411584808
 21
101.7708045535
 31
0.0
  0
LINE
  5
4A4
330
1F
100
AcDbEntity
  8
0
  6
Continuous
 62
     7
370
    15
100
AcDbLine
 10
222.0795264816
 20
105.1833697411
 30
0.0
 11
219.5541296838
 21
102.7185050468
 31
0.0
  0
LINE
  5
4A5
330
1F
100
AcDbEntity
  8
0
  6
Continuous
 62
     7
370
    15
100
AcDbLine
 10
231.0475827508
 20
104.1145606926
 30
0.0
 11
236.079317136
 21
102.7470431038
 31
0.0
  0
LINE
  5
4A6
330
1F
100
AcDbEntity
  8
0
  6
Continuous
 62
     7
370
    15
100
AcDbLine
 10
231.0475827508
 20
104.4574276691
 30
0.0
 11
231.0475827508
 21
104.1145606926
 31
0.0
  0
LINE
  5
4A7
330
1F
100
AcDbEntity
  8
0
  6
Continuous
 62
     7
370
    15
100
AcDbLine
 10
231.6076155707
 20
103.2897022271
 30
0.0
 11
231.4647324568
 21
103.1502439276
 31
0.0
  0
LINE
  5
4A8
330
1F
100
AcDbEntity
  8
0
  6
Continuous
 62
     7
370
    15
100
AcDbLine
 10
225.5641908155
 20
105.6048291258
 30
0.0
 11
230.5959242123
 21
104.2373118055
 31
0.0
  0
LINE
  5
4A9
330
1F
100
AcDbEntity
  8
0
  6
Continuous
 62
     7
370
    15
100
AcDbLine
 10
225.5641908155
 20
105.9476961023
 30
0.0
 11
225.5641908155
 21
105.6048291258
 31
0.0
  0
LINE
  5
4AA
330
1F
100
AcDbEntity
  8
0
  6
Continuous
 62
     7
370
    15
100
AcDbLine
 10
226.1242236354
 20
104.7799706602
 30
0.0
 11
225.9813405215
 21
104.6405123607
 31
0.0
  0
LINE
  5
4AB
330
1F
100
AcDbEntity
  8
0
  6
Continuous
 62
     7
370
    15
100
AcDbLine
 10
223.176261825
 20
106.2538170583
 30
0.0
 11
223.176261825
 21
106.5966840347
 31
0.0
  0
LINE
  5
4AC
330
1F
100
AcDbEntity
  8
0
  6
Continuous
 62
     7
370
    15
100
AcDbLine
 10
223.176261825
 20
106.2538170583
 30
0.0
 11
222.4943117245
 21
105.588212854
 31
0.0
  0
LINE
  5
4AD
330
1F
100
AcDbEntity
  8
0
  6
Continuous
 62
     7
370
    15
100
AcDbLine
 10
223.176261825
 20
106.2538170583
 30
0.0
 11
225.1125319475
 21
105.7275803282
 31
0.0
  0
ENDSEC
  0
SECTION
  2
OBJECTS
  0
DICTIONARY
  5
C
330
0
100
AcDbDictionary
281
     1
  3
ACAD_GROUP
350
D
  3
ACAD_LAYOUT
350
1A
  3
ACAD_MLINESTYLE
350
17
  3
ACAD_PLOTSETTINGS
350
19
  3
ACAD_PLOTSTYLENAME
350
E
  3
ACAD_SCALELIST
350
47
  0
DICTIONARY
  5
D
102
{ACAD_REACTORS
330
C
102
}
330
C
100
AcDbDictionary
281
     1
  0
DICTIONARY
  5
1A
102
{ACAD_REACTORS
330
C
102
}
330
C
100
AcDbDictionary
281
     1
  3
Layout1
350
1E
  3
Layout2
350
26
  3
Model
350
22
  0
DICTIONARY
  5
17
102
{ACAD_REACTORS
330
C
102
}
330
C
100
AcDbDictionary
281
     1
  3
Standard
350
18
  0
DICTIONARY
  5
19
102
{ACAD_REACTORS
330
C
102
}
330
C
100
AcDbDictionary
281
     1
  0
ACDBDICTIONARYWDFLT
  5
E
102
{ACAD_REACTORS
330
C
102
}
330
C
100
AcDbDictionary
281
     1
  3
Normal
350
F
100
AcDbDictionaryWithDefault
340
F
  0
DICTIONARY
  5
47
102
{ACAD_REACTORS
330
C
102
}
330
C
100
AcDbDictionary
281
     1
  3
A0
350
48
  3
A1
350
49
  3
A2
350
4A
  3
A3
350
4B
  3
A4
350
4C
  3
A5
350
4D
  3
A6
350
4E
  3
A7
350
4F
  3
A8
350
50
  3
A9
350
51
  3
B0
350
52
  3
B1
350
53
  3
B2
350
54
  3
B3
350
55
  3
B4
350
56
  3
B5
350
57
  3
B6
350
58
  3
B7
350
59
  3
B8
350
5A
  3
B9
350
5B
  3
C0
350
5C
  3
C1
350
5D
  3
C2
350
5E
  3
C3
350
5F
  3
C4
350
60
  3
C5
350
61
  3
C6
350
62
  3
C7
350
63
  3
C8
350
64
  3
C9
350
65
  3
D0
350
66
  3
D1
350
67
  3
D2
350
68
  0
LAYOUT
  5
1E
102
{ACAD_REACTORS
330
1A
102
}
330
1A
100
AcDbPlotSettings
  1

  2
none_device
  4

  6

 40
0.0
 41
0.0
 42
0.0
 43
0.0
 44
0.0
 45
0.0
 46
0.0
 47
0.0
 48
0.0
 49
0.0
140
0.0
141
0.0
142
1.0
143
1.0
 70
   688
 72
     1
 73
     0
 74
     5
  7

 75
    16
147
1.0
148
0.0
149
0.0
100
AcDbLayout
  1
Layout1
 70
     1
 71
     1
 10
0.0
 20
0.0
 11
420.0
 21
297.0
 12
0.0
 22
0.0
 32
0.0
 14
1.0000000000E+20
 24
1.0000000000E+20
 34
1.0000000000E+20
 15
-1.0000000000E+20
 25
-1.0000000000E+20
 35
-1.0000000000E+20
146
0.0
 13
0.0
 23
0.0
 33
0.0
 16
1.0
 26
0.0
 36
0.0
 17
0.0
 27
1.0
 37
0.0
 76
     0
330
1B
  0
LAYOUT
  5
26
102
{ACAD_REACTORS
330
1A
102
}
330
1A
100
AcDbPlotSettings
  1

  2
none_device
  4

  6

 40
0.0
 41
0.0
 42
0.0
 43
0.0
 44
0.0
 45
0.0
 46
0.0
 47
0.0
 48
0.0
 49
0.0
140
0.0
141
0.0
142
1.0
143
1.0
 70
   688
 72
     1
 73
     0
 74
     5
  7

 75
    16
147
1.0
148
0.0
149
0.0
100
AcDbLayout
  1
Layout2
 70
     1
 71
     2
 10
0.0
 20
0.0
 11
0.0
 21
0.0
 12
0.0
 22
0.0
 32
0.0
 14
0.0
 24
0.0
 34
0.0
 15
0.0
 25
0.0
 35
0.0
146
0.0
 13
0.0
 23
0.0
 33
0.0
 16
1.0
 26
0.0
 36
0.0
 17
0.0
 27
1.0
 37
0.0
 76
     0
330
23
  0
LAYOUT
  5
22
102
{ACAD_REACTORS
330
1A
102
}
330
1A
100
AcDbPlotSettings
  1

  2
none_device
  4
Letter_(8.50_x_11.00_Inches)
  6

 40
6.35
 41
6.35
 42
6.35000508
 43
6.35000508
 44
215.9
 45
279.4
 46
0.0
 47
0.0
 48
0.0
 49
0.0
140
0.0
141
0.0
142
1.0
143
1.0
 70
  1712
 72
     1
 73
     0
 74
     0
  7

 75
     0
147
1.0
148
0.0
149
0.0
100
AcDbLayout
  1
Model
 70
     1
 71
     0
 10
0.0
 20
0.0
 11
297.0
 21
210.0
 12
0.0
 22
0.0
 32
0.0
 14
0.0
 24
0.0
 34
0.0
 15
297.0
 25
210.0
 35
0.0
146
0.0
 13
0.0
 23
0.0
 33
0.0
 16
1.0
 26
0.0
 36
0.0
 17
0.0
 27
1.0
 37
0.0
 76
     0
330
1F
331
29
  0
MLINESTYLE
  5
18
102
{ACAD_REACTORS
330
17
102
}
330
17
100
AcDbMlineStyle
  2
Standard
 70
     0
  3

 62
   256
 51
90.0
 52
90.0
 71
     2
 49
0.5
 62
   256
  6
BYLAYER
 49
-0.5
 62
   256
  6
BYLAYER
  0
ACDBPLACEHOLDER
  5
F
102
{ACAD_REACTORS
330
E
102
}
330
E
  0
SCALE
  5
48
102
{ACAD_REACTORS
330
47
102
}
330
47
100
AcDbScale
 70
     0
300
1:1
140
1.0
141
1.0
290
     1
  0
SCALE
  5
49
102
{ACAD_REACTORS
330
47
102
}
330
47
100
AcDbScale
 70
     0
300
1:2
140
1.0
141
2.0
290
     0
  0
SCALE
  5
4A
102
{ACAD_REACTORS
330
47
102
}
330
47
100
AcDbScale
 70
     0
300
1:4
140
1.0
141
4.0
290
     0
  0
SCALE
  5
4B
102
{ACAD_REACTORS
330
47
102
}
330
47
100
AcDbScale
 70
     0
300
1:5
140
1.0
141
5.0
290
     0
  0
SCALE
  5
4C
102
{ACAD_REACTORS
330
47
102
}
330
47
100
AcDbScale
 70
     0
300
1:8
140
1.0
141
8.0
290
     0
  0
SCALE
  5
4D
102
{ACAD_REACTORS
330
47
102
}
330
47
100
AcDbScale
 70
     0
300
1:10
140
1.0
141
10.0
290
     0
  0
SCALE
  5
4E
102
{ACAD_REACTORS
330
47
102
}
330
47
100
AcDbScale
 70
     0
300
1:16
140
1.0
141
16.0
290
     0
  0
SCALE
  5
4F
102
{ACAD_REACTORS
330
47
102
}
330
47
100
AcDbScale
 70
     0
300
1:20
140
1.0
141
20.0
290
     0
  0
SCALE
  5
50
102
{ACAD_REACTORS
330
47
102
}
330
47
100
AcDbScale
 70
     0
300
1:30
140
1.0
141
30.0
290
     0
  0
SCALE
  5
51
102
{ACAD_REACTORS
330
47
102
}
330
47
100
AcDbScale
 70
     0
300
1:40
140
1.0
141
40.0
290
     0
  0
SCALE
  5
52
102
{ACAD_REACTORS
330
47
102
}
330
47
100
AcDbScale
 70
     0
300
1:50
140
1.0
141
50.0
290
     0
  0
SCALE
  5
53
102
{ACAD_REACTORS
330
47
102
}
330
47
100
AcDbScale
 70
     0
300
1:100
140
1.0
141
100.0
290
     0
  0
SCALE
  5
54
102
{ACAD_REACTORS
330
47
102
}
330
47
100
AcDbScale
 70
     0
300
2:1
140
2.0
141
1.0
290
     0
  0
SCALE
  5
55
102
{ACAD_REACTORS
330
47
102
}
330
47
100
AcDbScale
 70
     0
300
4:1
140
4.0
141
1.0
290
     0
  0
SCALE
  5
56
102
{ACAD_REACTORS
330
47
102
}
330
47
100
AcDbScale
 70
     0
300
8:1
140
8.0
141
1.0
290
     0
  0
SCALE
  5
57
102
{ACAD_REACTORS
330
47
102
}
330
47
100
AcDbScale
 70
     0
300
10:1
140
10.0
141
1.0
290
     0
  0
SCALE
  5
58
102
{ACAD_REACTORS
330
47
102
}
330
47
100
AcDbScale
 70
     0
300
100:1
140
100.0
141
1.0
290
     0
  0
SCALE
  5
59
102
{ACAD_REACTORS
330
47
102
}
330
47
100
AcDbScale
 70
     0
300
1/128" = 1'-0"
140
0.0078125
141
12.0
290
     0
  0
SCALE
  5
5A
102
{ACAD_REACTORS
330
47
102
}
330
47
100
AcDbScale
 70
     0
300
1/64" = 1'-0"
140
0.015625
141
12.0
290
     0
  0
SCALE
  5
5B
102
{ACAD_REACTORS
330
47
102
}
330
47
100
AcDbScale
 70
     0
300
1/32" = 1'-0"
140
0.03125
141
12.0
290
     0
  0
SCALE
  5
5C
102
{ACAD_REACTORS
330
47
102
}
330
47
100
AcDbScale
 70
     0
300
1/16" = 1'-0"
140
0.0625
141
12.0
290
     0
  0
SCALE
  5
5D
102
{ACAD_REACTORS
330
47
102
}
330
47
100
AcDbScale
 70
     0
300
3/32" = 1'-0"
140
0.09375
141
12.0
290
     0
  0
SCALE
  5
5E
102
{ACAD_REACTORS
330
47
102
}
330
47
100
AcDbScale
 70
     0
300
1/8" = 1'-0"
140
0.125
141
12.0
290
     0
  0
SCALE
  5
5F
102
{ACAD_REACTORS
330
47
102
}
330
47
100
AcDbScale
 70
     0
300
3/16" = 1'-0"
140
0.1875
141
12.0
290
     0
  0
SCALE
  5
60
102
{ACAD_REACTORS
330
47
102
}
330
47
100
AcDbScale
 70
     0
300
1/4" = 1'-0"
140
0.25
141
12.0
290
     0
  0
SCALE
  5
61
102
{ACAD_REACTORS
330
47
102
}
330
47
100
AcDbScale
 70
     0
300
3/8" = 1'-0"
140
0.375
141
12.0
290
     0
  0
SCALE
  5
62
102
{ACAD_REACTORS
330
47
102
}
330
47
100
AcDbScale
 70
     0
300
1/2" = 1'-0"
140
0.5
141
12.0
290
     0
  0
SCALE
  5
63
102
{ACAD_REACTORS
330
47
102
}
330
47
100
AcDbScale
 70
     0
300
3/4" = 1'-0"
140
0.75
141
12.0
290
     0
  0
SCALE
  5
64
102
{ACAD_REACTORS
330
47
102
}
330
47
100
AcDbScale
 70
     0
300
1" = 1'-0"
140
1.0
141
12.0
290
     0
  0
SCALE
  5
65
102
{ACAD_REACTORS
330
47
102
}
330
47
100
AcDbScale
 70
     0
300
1-1/2" = 1'-0"
140
1.5
141
12.0
290
     0
  0
SCALE
  5
66
102
{ACAD_REACTORS
330
47
102
}
330
47
100
AcDbScale
 70
     0
300
3" = 1'-0"
140
3.0
141
12.0
290
     0
  0
SCALE
  5
67
102
{ACAD_REACTORS
330
47
102
}
330
47
100
AcDbScale
 70
     0
300
6" = 1'-0"
140
6.0
141
12.0
290
     0
  0
SCALE
  5
68
102
{ACAD_REACTORS
330
47
102
}
330
47
100
AcDbScale
 70
     0
300
1'-0" = 1'-0"
140
12.0
141
12.0
290
     0
  0
ENDSEC
  0
EOF
