  0
SECTION
  2
HEADER
  9
$ACADVER
  1
AC1015
  9
$ACADMAINTVER
 70
     6
  9
$DWGCODEPAGE
  3
ANSI_1252
  9
$INSBASE
 10
0.0
 20
0.0
 30
0.0
  9
$EXTMIN
 10
0.0
 20
0.0
 30
0.0
  9
$EXTMAX
 10
14850.0
 20
10500.0
 30
0.0
  9
$LIMMIN
 10
0.0
 20
0.0
  9
$LIMMAX
 10
14850.0
 20
10500.0
  9
$ORTHOMODE
 70
     0
  9
$REGENMODE
 70
     1
  9
$FILLMODE
 70
     1
  9
$QTEXTMODE
 70
     0
  9
$MIRRTEXT
 70
     1
  9
$LTSCALE
 40
50.0
  9
$ATTMODE
 70
     1
  9
$TEXTSIZE
 40
175.0
  9
$TRACEWID
 40
1.0
  9
$TEXTSTYLE
  7
Standard
  9
$CLAYER
  8
0
  9
$CELTYPE
  6
ByLayer
  9
$CECOLOR
 62
   256
  9
$CELTSCALE
 40
1.0
  9
$DISPSILH
 70
     0
  9
$DIMSCALE
 40
1.0
  9
$DIMASZ
 40
165.1
  9
$DIMEXO
 40
50.0
  9
$DIMDLI
 40
3.75
  9
$DIMRND
 40
0.0
  9
$DIMDLE
 40
0.0
  9
$DIMEXE
 40
50.0
  9
$DIMTP
 40
0.0
  9
$DIMTM
 40
0.0
  9
$DIMTXT
 40
175.0
  9
$DIMCEN
 40
2.5
  9
$DIMTSZ
 40
0.0
  9
$DIMTOL
 70
     0
  9
$DIMLIM
 70
     0
  9
$DIMTIH
 70
     1
  9
$DIMTOH
 70
     1
  9
$DIMSE1
 70
     0
  9
$DIMSE2
 70
     0
  9
$DIMTAD
 70
     1
  9
$DIMZIN
 70
     0
  9
$DIMBLK
  1

  9
$DIMASO
 70
     1
  9
$DIMSHO
 70
     1
  9
$DIMPOST
  1

  9
$DIMAPOST
  1

  9
$DIMALT
 70
     0
  9
$DIMALTD
 70
     3
  9
$DIMALTF
 40
0.0393700787
  9
$DIMLFAC
 40
1.0
  9
$DIMTOFL
 70
     1
  9
$DIMTVP
 40
0.0
  9
$DIMTIX
 70
     0
  9
$DIMSOXD
 70
     0
  9
$DIMSAH
 70
     0
  9
$DIMBLK1
  1

  9
$DIMBLK2
  1

  9
$DIMSTYLE
  2
ISO-25
  9
$DIMCLRD
 70
     0
  9
$DIMCLRE
 70
     0
  9
$DIMCLRT
 70
     0
  9
$DIMTFAC
 40
1.0
  9
$DIMGAP
 40
76.2
  9
$DIMJUST
 70
     0
  9
$DIMSD1
 70
     0
  9
$DIMSD2
 70
     0
  9
$DIMTOLJ
 70
     0
  9
$DIMTZIN
 70
     0
  9
$DIMALTZ
 70
     0
  9
$DIMALTTZ
 70
     0
  9
$DIMUPT
 70
     0
  9
$DIMDEC
 70
     2
  9
$DIMTDEC
 70
     2
  9
$DIMALTU
 70
     2
  9
$DIMALTTD
 70
     3
  9
$DIMTXSTY
  7
Standard
  9
$DIMAUNIT
 70
     0
  9
$DIMADEC
 70
     2
  9
$DIMALTRND
 40
0.0
  9
$DIMAZIN
 70
     0
  9
$DIMDSEP
 70
    44
  9
$DIMATFIT
 70
     3
  9
$DIMFRAC
 70
     0
  9
$DIMLDRBLK
  1

  9
$DIMLUNIT
 70
     2
  9
$DIMLWD
 70
    -2
  9
$DIMLWE
 70
    -2
  9
$DIMTMOVE
 70
     0
  9
$LUNITS
 70
     2
  9
$LUPREC
 70
     2
  9
$SKETCHINC
 40
1.0
  9
$FILLETRAD
 40
10.0
  9
$AUNITS
 70
     0
  9
$AUPREC
 70
     2
  9
$MENU
  1
.
  9
$ELEVATION
 40
0.0
  9
$PELEVATION
 40
0.0
  9
$THICKNESS
 40
0.0
  9
$LIMCHECK
 70
     0
  9
$CHAMFERA
 40
0.0
  9
$CHAMFERB
 40
0.0
  9
$CHAMFERC
 40
0.0
  9
$CHAMFERD
 40
0.0
  9
$SKPOLY
 70
     0
  9
$TDCREATE
 40
2456904.567261111
  9
$TDUCREATE
 40
2456904.483927778
  9
$TDUPDATE
 40
2456904.567261852
  9
$TDUUPDATE
 40
2456904.483928518
  9
$TDINDWG
 40
0.0000000116
  9
$TDUSRTIMER
 40
0.0000000116
  9
$USRTIMER
 70
     1
  9
$ANGBASE
 50
0.0
  9
$ANGDIR
 70
     0
  9
$PDMODE
 70
     0
  9
$PDSIZE
 40
-1.0
  9
$PLINEWID
 40
0.0
  9
$SPLFRAME
 70
     0
  9
$SPLINETYPE
 70
     6
  9
$SPLINESEGS
 70
     8
  9
$HANDSEED
  5
146
  9
$SURFTAB1
 70
     6
  9
$SURFTAB2
 70
     6
  9
$SURFTYPE
 70
     6
  9
$SURFU
 70
     6
  9
$SURFV
 70
     6
  9
$UCSBASE
  2

  9
$UCSNAME
  2

  9
$UCSORG
 10
0.0
 20
0.0
 30
0.0
  9
$UCSXDIR
 10
1.0
 20
0.0
 30
0.0
  9
$UCSYDIR
 10
0.0
 20
1.0
 30
0.0
  9
$UCSORTHOREF
  2

  9
$UCSORTHOVIEW
 70
     0
  9
$UCSORGTOP
 10
0.0
 20
0.0
 30
0.0
  9
$UCSORGBOTTOM
 10
0.0
 20
0.0
 30
0.0
  9
$UCSORGLEFT
 10
0.0
 20
0.0
 30
0.0
  9
$UCSORGRIGHT
 10
0.0
 20
0.0
 30
0.0
  9
$UCSORGFRONT
 10
0.0
 20
0.0
 30
0.0
  9
$UCSORGBACK
 10
0.0
 20
0.0
 30
0.0
  9
$PUCSBASE
  2

  9
$PUCSNAME
  2

  9
$PUCSORG
 10
0.0
 20
0.0
 30
0.0
  9
$PUCSXDIR
 10
1.0
 20
0.0
 30
0.0
  9
$PUCSYDIR
 10
0.0
 20
1.0
 30
0.0
  9
$PUCSORTHOREF
  2

  9
$PUCSORTHOVIEW
 70
     0
  9
$PUCSORGTOP
 10
0.0
 20
0.0
 30
0.0
  9
$PUCSORGBOTTOM
 10
0.0
 20
0.0
 30
0.0
  9
$PUCSORGLEFT
 10
0.0
 20
0.0
 30
0.0
  9
$PUCSORGRIGHT
 10
0.0
 20
0.0
 30
0.0
  9
$PUCSORGFRONT
 10
0.0
 20
0.0
 30
0.0
  9
$PUCSORGBACK
 10
0.0
 20
0.0
 30
0.0
  9
$USERI1
 70
     0
  9
$USERI2
 70
     0
  9
$USERI3
 70
     0
  9
$USERI4
 70
     0
  9
$USERI5
 70
     0
  9
$USERR1
 40
0.0
  9
$USERR2
 40
0.0
  9
$USERR3
 40
0.0
  9
$USERR4
 40
0.0
  9
$USERR5
 40
0.0
  9
$WORLDVIEW
 70
     1
  9
$SHADEDGE
 70
     3
  9
$SHADEDIF
 70
    70
  9
$TILEMODE
 70
     1
  9
$MAXACTVP
 70
    64
  9
$PINSBASE
 10
0.0
 20
0.0
 30
0.0
  9
$PLIMCHECK
 70
     0
  9
$PEXTMIN
 10
1.0000000000E+20
 20
1.0000000000E+20
 30
1.0000000000E+20
  9
$PEXTMAX
 10
-1.0000000000E+20
 20
-1.0000000000E+20
 30
-1.0000000000E+20
  9
$PLIMMIN
 10
0.0
 20
0.0
  9
$PLIMMAX
 10
420.0
 20
297.0
  9
$UNITMODE
 70
     0
  9
$VISRETAIN
 70
     1
  9
$PLINEGEN
 70
     0
  9
$PSLTSCALE
 70
     1
  9
$TREEDEPTH
 70
  3020
  9
$CMLSTYLE
  2
Standard
  9
$CMLJUST
 70
     0
  9
$CMLSCALE
 40
20.0
  9
$PROXYGRAPHICS
 70
     1
  9
$MEASUREMENT
 70
     1
  9
$CELWEIGHT
370
    -1
  9
$ENDCAPS
280
     0
  9
$JOINSTYLE
280
     0
  9
$LWDISPLAY
290
     1
  9
$INSUNITS
 70
     4
  9
$HYPERLINKBASE
  1

  9
$STYLESHEET
  1

  9
$XEDIT
290
     1
  9
$CEPSNTYPE
380
     0
  9
$PSTYLEMODE
290
     1
  9
$FINGERPRINTGUID
  2
{0B734411-B8C8-4A03-9888-B8A3EDD9AA1E}
  9
$VERSIONGUID
  2
{FAEB1C32-E019-11D5-929B-00C0DF256EC4}
  9
$EXTNAMES
290
     1
  9
$PSVPSCALE
 40
0.0
  9
$OLESTARTUP
290
     0
  0
ENDSEC
  0
SECTION
  2
CLASSES
  0
CLASS
  1
ACDBDICTIONARYWDFLT
  2
AcDbDictionaryWithDefault
  3
ObjectDBX Classes
 90
        0
280
     0
281
     0
  0
CLASS
  1
VISUALSTYLE
  2
AcDbVisualStyle
  3
ObjectDBX Classes
 90
     4095
280
     0
281
     0
  0
CLASS
  1
MATERIAL
  2
AcDbMaterial
  3
ObjectDBX Classes
 90
     1153
280
     0
281
     0
  0
CLASS
  1
SCALE
  2
AcDbScale
  3
ObjectDBX Classes
 90
     1153
280
     0
281
     0
  0
CLASS
  1
SUN
  2
AcDbSun
  3
SCENEOE
 90
     1153
280
     0
281
     0
  0
CLASS
  1
ACDBPLACEHOLDER
  2
AcDbPlaceHolder
  3
ObjectDBX Classes
 90
        0
280
     0
281
     0
  0
CLASS
  1
LAYOUT
  2
AcDbLayout
  3
ObjectDBX Classes
 90
        0
280
     0
281
     0
  0
ENDSEC
  0
SECTION
  2
TABLES
  0
TABLE
  2
VPORT
  5
8
330
0
100
AcDbSymbolTable
 70
     1
  0
VPORT
  5
29
330
8
100
AcDbSymbolTableRecord
100
AcDbViewportTableRecord
  2
*Active
 70
     0
 10
0.0
 20
0.0
 11
1.0
 21
1.0
 12
7425.0
 22
5250.0
 13
0.0
 23
0.0
 14
10.0
 24
10.0
 15
10.0
 25
10.0
 16
0.0
 26
0.0
 36
1.0
 17
0.0
 27
0.0
 37
0.0
 40
10500.0
 41
1.4142857143
 42
50.0
 43
0.0
 44
0.0
 50
0.0
 51
0.0
 71
     0
 72
  2000
 73
     1
 74
     3
 75
     0
 76
     0
 77
     0
 78
     0
281
     0
 65
     1
110
0.0
120
0.0
130
0.0
111
1.0
121
0.0
131
0.0
112
0.0
122
1.0
132
0.0
 79
     0
146
0.0
  0
ENDTAB
  0
TABLE
  2
LTYPE
  5
5
330
0
100
AcDbSymbolTable
 70
     6
  0
LTYPE
  5
14
330
5
100
AcDbSymbolTableRecord
100
AcDbLinetypeTableRecord
  2
ByBlock
 70
     0
  3

 72
    65
 73
     0
 40
0.0
  0
LTYPE
  5
15
330
5
100
AcDbSymbolTableRecord
100
AcDbLinetypeTableRecord
  2
ByLayer
 70
     0
  3

 72
    65
 73
     0
 40
0.0
  0
LTYPE
  5
16
330
5
100
AcDbSymbolTableRecord
100
AcDbLinetypeTableRecord
  2
Continuous
 70
     0
  3
Solid line
 72
    65
 73
     0
 40
0.0
  0
LTYPE
  5
6A
330
5
100
AcDbSymbolTableRecord
100
AcDbLinetypeTableRecord
  2
HIDDEN
 70
     0
  3
Hidden __ __ __ __ __ __ __ __ __ __ __ __ __ __
 72
    65
 73
     2
 40
1.905
 49
1.27
 74
     0
 49
-0.635
 74
     0
  0
LTYPE
  5
6B
330
5
100
AcDbSymbolTableRecord
100
AcDbLinetypeTableRecord
  2
PHANTOM
 70
     0
  3
Phantom ______  __  __  ______  __  __  ______
 72
    65
 73
     6
 40
12.7
 49
6.35
 74
     0
 49
-1.27
 74
     0
 49
1.27
 74
     0
 49
-1.27
 74
     0
 49
1.27
 74
     0
 49
-1.27
 74
     0
  0
LTYPE
  5
6C
330
5
100
AcDbSymbolTableRecord
100
AcDbLinetypeTableRecord
  2
CENTER
 70
     0
  3
Center ____ _ ____ _ ____ _ ____ _ ____ _ ____
 72
    65
 73
     4
 40
10.16
 49
6.35
 74
     0
 49
-1.27
 74
     0
 49
1.27
 74
     0
 49
-1.27
 74
     0
  0
LTYPE
  5
6D
330
5
100
AcDbSymbolTableRecord
100
AcDbLinetypeTableRecord
  2
CENTERX2
 70
     0
  3
Center (2x) ________  __  ________  __  _____
 72
    65
 73
     4
 40
20.32
 49
12.7
 74
     0
 49
-2.54
 74
     0
 49
2.54
 74
     0
 49
-2.54
 74
     0
  0
LTYPE
  5
6E
330
5
100
AcDbSymbolTableRecord
100
AcDbLinetypeTableRecord
  2
DOT2
 70
     0
  3
Dot (.5x) ........................................
 72
    65
 73
     2
 40
0.635
 49
0.0
 74
     0
 49
-0.635
 74
     0
  0
ENDTAB
  0
TABLE
  2
LAYER
  5
2
330
0
100
AcDbSymbolTable
 70
     2
  0
LAYER
  5
10
330
2
100
AcDbSymbolTableRecord
100
AcDbLayerTableRecord
  2
0
 70
     0
 62
     7
  6
Continuous
370
    -3
390
F
  0
LAYER
  5
6F
330
2
100
AcDbSymbolTableRecord
100
AcDbLayerTableRecord
  2
FORMAT
 70
     0
 62
     7
  6
Continuous
370
    -3
390
F
  0
ENDTAB
  0
TABLE
  2
STYLE
  5
3
330
0
100
AcDbSymbolTable
 70
     3
  0
STYLE
  5
11
330
3
100
AcDbSymbolTableRecord
100
AcDbTextStyleTableRecord
  2
Standard
 70
     0
 40
0.0
 41
1.0
 50
0.0
 71
     0
 42
175.0
  3
txt
  4

  0
STYLE
  5
8C
330
3
100
AcDbSymbolTableRecord
100
AcDbTextStyleTableRecord
  2
SLDTEXTSTYLE0
 70
     0
 40
0.0
 41
0.75
 50
0.0
 71
     0
 42
175.0
  3
TXT
  4

  0
STYLE
  5
94
330
3
100
AcDbSymbolTableRecord
100
AcDbTextStyleTableRecord
  2
SLDTEXTSTYLE1
 70
     0
 40
0.0
 41
0.6923076923
 50
0.0
 71
     0
 42
175.0
  3
TXT
  4

  0
ENDTAB
  0
TABLE
  2
VIEW
  5
6
330
0
100
AcDbSymbolTable
 70
     0
  0
ENDTAB
  0
TABLE
  2
UCS
  5
7
330
0
100
AcDbSymbolTable
 70
     0
  0
ENDTAB
  0
TABLE
  2
APPID
  5
9
330
0
100
AcDbSymbolTable
 70
     1
  0
APPID
  5
12
330
9
100
AcDbSymbolTableRecord
100
AcDbRegAppTableRecord
  2
ACAD
 70
     0
  0
ENDTAB
  0
TABLE
  2
DIMSTYLE
  5
A
330
0
100
AcDbSymbolTable
 70
     1
100
AcDbDimStyleTable
  0
DIMSTYLE
105
27
330
A
100
AcDbSymbolTableRecord
100
AcDbDimStyleTableRecord
  2
ISO-25
 70
     0
 41
2.5
 42
0.625
 43
3.75
 44
1.25
 73
     0
 74
     0
 77
     1
 78
     8
140
2.5
141
2.5
143
0.0393700787
147
0.625
171
     3
172
     1
178
     0
271
     2
272
     2
274
     3
278
    44
283
     0
284
     8
340
11
  0
ENDTAB
  0
TABLE
  2
BLOCK_RECORD
  5
1
330
0
100
AcDbSymbolTable
 70
     1
  0
BLOCK_RECORD
  5
1F
330
1
100
AcDbSymbolTableRecord
100
AcDbBlockTableRecord
  2
*Model_Space
340
22
  0
BLOCK_RECORD
  5
1B
330
1
100
AcDbSymbolTableRecord
100
AcDbBlockTableRecord
  2
*Paper_Space
340
1E
  0
BLOCK_RECORD
  5
23
330
1
100
AcDbSymbolTableRecord
100
AcDbBlockTableRecord
  2
*Paper_Space0
340
26
  0
ENDTAB
  0
ENDSEC
  0
SECTION
  2
BLOCKS
  0
BLOCK
  5
20
330
1F
100
AcDbEntity
  8
0
100
AcDbBlockBegin
  2
*Model_Space
 70
     0
 10
0.0
 20
0.0
 30
0.0
  3
*Model_Space
  1
*Model_Space
  0
ENDBLK
  5
21
330
1F
100
AcDbEntity
  8
0
100
AcDbBlockEnd
  0
BLOCK
  5
1C
330
1B
100
AcDbEntity
 67
     1
  8
0
100
AcDbBlockBegin
  2
*Paper_Space
 70
     0
 10
0.0
 20
0.0
 30
0.0
  3
*Paper_Space
  1
*Paper_Space
  0
ENDBLK
  5
1D
330
1B
100
AcDbEntity
 67
     1
  8
0
100
AcDbBlockEnd
  0
BLOCK
  5
24
330
23
100
AcDbEntity
  8
0
100
AcDbBlockBegin
  2
*Paper_Space0
 70
     0
 10
0.0
 20
0.0
 30
0.0
  3
*Paper_Space0
  1
*Paper_Space0
  0
ENDBLK
  5
25
330
23
100
AcDbEntity
  8
0
100
AcDbBlockEnd
  0
ENDSEC
  0
SECTION
  2
ENTITIES
  0
LINE
  5
70
330
1F
100
AcDbEntity
  8
0
  6
Continuous
 62
     7
370
     0
100
AcDbLine
 10
14600.0
 20
10250.0
 30
0.0
 11
14600.0
 21
250.0
 31
0.0
  0
LINE
  5
71
330
1F
100
AcDbEntity
  8
0
  6
Continuous
 62
     7
370
     0
100
AcDbLine
 10
7970.0
 20
1737.5
 30
0.0
 11
8706.5
 21
1737.5
 31
0.0
  0
LINE
  5
72
330
1F
100
AcDbEntity
  8
0
  6
Continuous
 62
     7
370
     0
100
AcDbLine
 10
10180.0
 20
1737.5
 30
0.0
 11
14600.0
 21
1737.5
 31
0.0
  0
LINE
  5
73
330
1F
100
AcDbEntity
  8
0
  6
Continuous
 62
     7
370
     0
100
AcDbLine
 10
7970.0
 20
462.5
 30
0.0
 11
14600.0
 21
462.5
 31
0.0
  0
LINE
  5
74
330
1F
100
AcDbEntity
  8
0
  6
Continuous
 62
     7
370
     0
100
AcDbLine
 10
7970.0
 20
1737.5
 30
0.0
 11
7970.0
 21
1418.75
 31
0.0
  0
LINE
  5
75
330
1F
100
AcDbEntity
  8
0
  6
Continuous
 62
     7
370
     0
100
AcDbLine
 10
14600.0
 20
1100.0
 30
0.0
 11
13950.0
 21
1100.0
 31
0.0
  0
LINE
  5
76
330
1F
100
AcDbEntity
  8
0
  6
Continuous
 62
     7
370
     0
100
AcDbLine
 10
9443.0
 20
1100.0
 30
0.0
 11
10180.0
 21
1100.0
 31
0.0
  0
LINE
  5
77
330
1F
100
AcDbEntity
  8
0
  6
Continuous
 62
     7
370
     0
100
AcDbLine
 10
10180.0
 20
1737.5
 30
0.0
 11
10180.0
 21
250.0
 31
0.0
  0
LINE
  5
78
330
1F
100
AcDbEntity
  8
0
  6
Continuous
 62
     7
370
     0
100
AcDbLine
 10
12390.0
 20
250.0
 30
0.0
 11
12390.0
 21
462.5
 31
0.0
  0
LINE
  5
79
330
1F
100
AcDbEntity
  8
0
  6
Continuous
 62
     7
370
     0
100
AcDbLine
 10
8706.5
 20
1737.5
 30
0.0
 11
9443.0
 21
1737.5
 31
0.0
  0
LINE
  5
7A
330
1F
100
AcDbEntity
  8
0
  6
Continuous
 62
     7
370
     0
100
AcDbLine
 10
13950.0
 20
462.5
 30
0.0
 11
13950.0
 21
774.7484680088
 31
0.0
  0
LINE
  5
7B
330
1F
100
AcDbEntity
  8
0
  6
Continuous
 62
     7
370
     0
100
AcDbLine
 10
9443.0
 20
1737.5
 30
0.0
 11
10180.0
 21
1737.5
 31
0.0
  0
LINE
  5
7C
330
1F
100
AcDbEntity
  8
0
  6
Continuous
 62
     7
370
     0
100
AcDbLine
 10
14600.0
 20
774.7484680088
 30
0.0
 11
13950.0
 21
774.7484680088
 31
0.0
  0
LINE
  5
7D
330
1F
100
AcDbEntity
  8
0
  6
Continuous
 62
     7
370
     0
100
AcDbLine
 10
10180.0
 20
1100.0
 30
0.0
 11
13950.0
 21
1100.0
 31
0.0
  0
LINE
  5
7E
330
1F
100
AcDbEntity
  8
0
  6
Continuous
 62
     7
370
     0
100
AcDbLine
 10
9443.0
 20
1737.5
 30
0.0
 11
9443.0
 21
1100.0
 31
0.0
  0
LINE
  5
7F
330
1F
100
AcDbEntity
  8
0
  6
Continuous
 62
     7
370
     0
100
AcDbLine
 10
9443.0
 20
1100.0
 30
0.0
 11
8706.5
 21
1100.0
 31
0.0
  0
LINE
  5
80
330
1F
100
AcDbEntity
  8
0
  6
Continuous
 62
     7
370
     0
100
AcDbLine
 10
14600.0
 20
10250.0
 30
0.0
 11
250.0
 21
10250.0
 31
0.0
  0
LINE
  5
81
330
1F
100
AcDbEntity
  8
0
  6
Continuous
 62
     7
370
     0
100
AcDbLine
 10
250.0
 20
10250.0
 30
0.0
 11
250.0
 21
250.0
 31
0.0
  0
LINE
  5
82
330
1F
100
AcDbEntity
  8
0
  6
Continuous
 62
     7
370
     0
100
AcDbLine
 10
250.0
 20
250.0
 30
0.0
 11
14600.0
 21
250.0
 31
0.0
  0
LINE
  5
83
330
1F
100
AcDbEntity
  8
0
  6
Continuous
 62
     7
370
     0
100
AcDbLine
 10
8706.5
 20
1100.0
 30
0.0
 11
8706.5
 21
1737.5
 31
0.0
  0
LINE
  5
84
330
1F
100
AcDbEntity
  8
0
  6
Continuous
 62
     7
370
     0
100
AcDbLine
 10
8706.5
 20
1100.0
 30
0.0
 11
7970.0
 21
1100.0
 31
0.0
  0
LINE
  5
85
330
1F
100
AcDbEntity
  8
0
  6
Continuous
 62
     7
370
     0
100
AcDbLine
 10
13950.0
 20
774.7484680088
 30
0.0
 11
13950.0
 21
1100.0
 31
0.0
  0
LINE
  5
86
330
1F
100
AcDbEntity
  8
0
  6
Continuous
 62
     7
370
     0
100
AcDbLine
 10
7970.0
 20
1418.75
 30
0.0
 11
8706.5
 21
1418.75
 31
0.0
  0
LINE
  5
87
330
1F
100
AcDbEntity
  8
0
  6
Continuous
 62
     7
370
     0
100
AcDbLine
 10
8706.5
 20
1418.75
 30
0.0
 11
9443.0
 21
1418.75
 31
0.0
  0
LINE
  5
88
330
1F
100
AcDbEntity
  8
0
  6
Continuous
 62
     7
370
     0
100
AcDbLine
 10
9443.0
 20
1418.75
 30
0.0
 11
10180.0
 21
1418.75
 31
0.0
  0
LINE
  5
89
330
1F
100
AcDbEntity
  8
0
  6
Continuous
 62
     7
370
     0
100
AcDbLine
 10
7970.0
 20
1100.0
 30
0.0
 11
7970.0
 21
1418.75
 31
0.0
  0
LINE
  5
8A
330
1F
100
AcDbEntity
  8
0
  6
Continuous
 62
     7
370
     0
100
AcDbLine
 10
7970.0
 20
1100.0
 30
0.0
 11
7970.0
 21
462.5
 31
0.0
  0
LINE
  5
8B
330
1F
100
AcDbEntity
  8
0
  6
Continuous
 62
     7
370
     0
100
AcDbLine
 10
7970.0
 20
250.0
 30
0.0
 11
7970.0
 21
462.5
 31
0.0
  0
MTEXT
  5
8D
330
1F
100
AcDbEntity
  8
0
  6
Continuous
 62
     7
370
     0
100
AcDbMText
 10
14013.846863997
 20
971.6222473842
 30
0.0
 40
75.0
 41
0.0
 71
     1
 72
     1
  1
Blattformat
  7
SLDTEXTSTYLE0
 73
     1
 44
1.0
  0
MTEXT
  5
8E
330
1F
100
AcDbEntity
  8
0
  6
Continuous
 62
     7
370
     0
100
AcDbMText
 10
8118.2120446351
 20
1293.7465234676
 30
0.0
 40
75.0
 41
0.0
 71
     1
 72
     1
  1
Ch. Höfig
  7
SLDTEXTSTYLE0
 73
     1
 44
1.0
  0
MTEXT
  5
8F
330
1F
100
AcDbEntity
  8
0
  6
Continuous
 62
     7
370
     0
100
AcDbMText
 10
8338.8098912947
 20
1610.1782907916
 30
0.0
 40
75.0
 41
0.0
 71
     2
 72
     1
  1
Name
  7
SLDTEXTSTYLE0
 73
     1
 44
1.0
  0
MTEXT
  5
90
330
1F
100
AcDbEntity
  8
0
  6
Continuous
 62
     7
370
     0
100
AcDbMText
 10
8022.2931154381
 20
1049.3028144623
 30
0.0
 40
75.0
 41
0.0
 71
     1
 72
     1
  1
Werkstoff:
  7
SLDTEXTSTYLE0
 73
     1
 44
1.0
  0
MTEXT
  5
91
330
1F
100
AcDbEntity
  8
0
  6
Continuous
 62
     7
370
     0
100
AcDbMText
 10
10243.2492951712
 20
1612.3050731487
 30
0.0
 40
75.0
 41
0.0
 71
     1
 72
     1
  1
Artikelnummer
  7
SLDTEXTSTYLE0
 73
     1
 44
1.0
  0
MTEXT
  5
92
330
1F
100
AcDbEntity
  8
0
  6
Continuous
 62
     7
370
     0
100
AcDbMText
 10
10243.6983058746
 20
993.4318913516
 30
0.0
 40
75.0
 41
0.0
 71
     1
 72
     1
  1
Hersteller
  7
SLDTEXTSTYLE0
 73
     1
 44
1.0
  0
MTEXT
  5
93
330
1F
100
AcDbEntity
  8
0
  6
Continuous
 62
     7
370
     0
100
AcDbMText
 10
10243.6983058746
 20
395.0043637266
 30
0.0
 40
75.0
 41
0.0
 71
     1
 72
     1
  1
Massstab: 1:50
  7
SLDTEXTSTYLE0
 73
     1
 44
1.0
  0
MTEXT
  5
95
330
1F
100
AcDbEntity
  8
0
  6
Continuous
 62
     7
370
     0
100
AcDbMText
 10
12463.9147213908
 20
395.0043637266
 30
0.0
 40
75.0
 41
0.0
 71
     1
 72
     1
  1
Blatt 1 von 1
  7
SLDTEXTSTYLE1
 73
     1
 44
1.0
  0
MTEXT
  5
96
330
1F
100
AcDbEntity
  8
0
  6
Continuous
 62
     7
370
     0
100
AcDbMText
 10
14150.9100625978
 20
710.7246793997
 30
0.0
 40
145.5208333333
 41
0.0
 71
     1
 72
     1
  1
A4
  7
SLDTEXTSTYLE0
 73
     1
 44
1.0
  0
MTEXT
  5
97
330
1F
100
AcDbEntity
  8
0
  6
Continuous
 62
     7
370
     0
100
AcDbMText
 10
12239.2860540881
 20
914.3859686823
 30
0.0
 40
264.5833333333
 41
0.0
 71
     2
 72
     1
  1
Feldmann GmbH
  7
SLDTEXTSTYLE0
 73
     1
 44
1.0
  0
MTEXT
  5
98
330
1F
100
AcDbEntity
  8
0
  6
Continuous
 62
     7
370
     0
100
AcDbMText
 10
9812.717449829
 20
1610.1782907916
 30
0.0
 40
75.0
 41
0.0
 71
     2
 72
     1
  1
Datum
  7
SLDTEXTSTYLE0
 73
     1
 44
1.0
  0
MTEXT
  5
99
330
1F
100
AcDbEntity
  8
0
  6
Continuous
 62
     7
370
     0
100
AcDbMText
 10
9001.3375475168
 20
1293.7465234676
 30
0.0
 40
75.0
 41
0.0
 71
     1
 72
     1
  1
CH
  7
SLDTEXTSTYLE0
 73
     1
 44
1.0
  0
MTEXT
  5
9A
330
1F
100
AcDbEntity
  8
0
  6
Continuous
 62
     7
370
     0
100
AcDbMText
 10
9569.8649653201
 20
1293.848354147
 30
0.0
 40
75.0
 41
0.0
 71
     1
 72
     1
  1
03.09.2014
  7
SLDTEXTSTYLE0
 73
     1
 44
1.0
  0
MTEXT
  5
9B
330
1F
100
AcDbEntity
  8
0
  6
Continuous
 62
     7
370
     0
100
AcDbMText
 10
9079.1132419147
 20
395.6218184716
 30
0.0
 40
75.0
 41
0.0
 71
     2
 72
     1
  1
Gewicht 5.682 kg
  7
SLDTEXTSTYLE0
 73
     1
 44
1.0
  0
MTEXT
  5
9C
330
1F
100
AcDbEntity
  8
0
  6
Continuous
 62
     7
370
     0
100
AcDbMText
 10
9075.9413027092
 20
779.8860092213
 30
0.0
 40
119.0625
 41
0.0
 71
     2
 72
     1
  1
1.0037 (S235JR)
  7
SLDTEXTSTYLE0
 73
     1
 44
1.0
  0
MTEXT
  5
9D
330
1F
100
AcDbEntity
  8
0
  6
Continuous
 62
     7
370
     0
100
AcDbMText
 10
11526.5822753894
 20
1468.8109809734
 30
0.0
 40
211.6666666667
 41
0.0
 71
     2
 72
     1
  1
2300-N
  7
SLDTEXTSTYLE0
 73
     1
 44
1.0
  0
MTEXT
  5
9E
330
1F
100
AcDbEntity
  8
0
  6
Continuous
 62
     7
370
     0
100
AcDbMText
 10
9087.6500891234
 20
1602.9519504981
 30
0.0
 40
75.0
 41
0.0
 71
     2
 72
     1
  1
Signatur
  7
SLDTEXTSTYLE0
 73
     1
 44
1.0
  0
ARC
  5
9F
330
1F
100
AcDbEntity
  8
0
  6
Continuous
 62
     7
370
    15
100
AcDbCircle
 10
4216.5768935236
 20
8060.6366630077
 30
0.0
 40
11.04999999999993
100
AcDbArc
 50
95.4526219878
 51
140.6923518839
  0
ARC
  5
A0
330
1F
100
AcDbEntity
  8
0
  6
Continuous
 62
     7
370
    15
100
AcDbCircle
 10
4214.4768935236
 20
8060.6366630077
 30
0.0
 40
11.05000000000002
100
AcDbArc
 50
39.3076481161
 51
84.5473780122
  0
LINE
  5
A1
330
1F
100
AcDbEntity
  8
0
  6
Continuous
 62
     7
370
    15
100
AcDbLine
 10
4230.5268935236
 20
8059.6366630077
 30
0.0
 11
4230.5268935236
 21
8067.6366630077
 31
0.0
  0
LINE
  5
A2
330
1F
100
AcDbEntity
  8
0
  6
Continuous
 62
     7
370
    15
100
AcDbLine
 10
4230.5268935236
 20
8067.6366630077
 30
0.0
 11
4200.5268935236
 21
8067.6366630077
 31
0.0
  0
LINE
  5
A3
330
1F
100
AcDbEntity
  8
0
  6
Continuous
 62
     7
370
    15
100
AcDbLine
 10
4200.5268935236
 20
8067.6366630077
 30
0.0
 11
4200.5268935236
 21
8059.6366630077
 31
0.0
  0
LINE
  5
A4
330
1F
100
AcDbEntity
  8
0
  6
Continuous
 62
     7
370
    15
100
AcDbLine
 10
4200.5268935236
 20
8059.6366630077
 30
0.0
 11
4230.5268935236
 21
8059.6366630077
 31
0.0
  0
ARC
  5
A5
330
1F
100
AcDbEntity
  8
0
  6
Continuous
 62
     7
370
    15
100
AcDbCircle
 10
10566.2036772777
 20
8060.6366630077
 30
0.0
 40
11.04999999999993
100
AcDbArc
 50
95.4526219878
 51
140.6923518839
  0
ARC
  5
A6
330
1F
100
AcDbEntity
  8
0
  6
Continuous
 62
     7
370
    15
100
AcDbCircle
 10
10564.1036772777
 20
8060.6366630077
 30
0.0
 40
11.05000000000084
100
AcDbArc
 50
39.3076481161
 51
84.5473780122
  0
ARC
  5
A7
330
1F
100
AcDbEntity
  8
0
  6
Continuous
 62
     7
370
    15
100
AcDbCircle
 10
9126.2036772777
 20
8060.6366630077
 30
0.0
 40
11.04999999999993
100
AcDbArc
 50
95.4526219878
 51
140.6923518839
  0
ARC
  5
A8
330
1F
100
AcDbEntity
  8
0
  6
Continuous
 62
     7
370
    15
100
AcDbCircle
 10
9124.1036772777
 20
8060.6366630077
 30
0.0
 40
11.04999999999993
100
AcDbArc
 50
39.3076481161
 51
84.5473780122
  0
ARC
  5
A9
330
1F
100
AcDbEntity
  8
0
  6
Continuous
 62
     7
370
    15
100
AcDbCircle
 10
9246.2036772777
 20
8060.6366630077
 30
0.0
 40
11.0500000000001
100
AcDbArc
 50
95.4526219878
 51
140.6923518839
  0
ARC
  5
AA
330
1F
100
AcDbEntity
  8
0
  6
Continuous
 62
     7
370
    15
100
AcDbCircle
 10
9244.1036772777
 20
8060.6366630077
 30
0.0
 40
11.05000000000084
100
AcDbArc
 50
39.3076481161
 51
84.5473780122
  0
ARC
  5
AB
330
1F
100
AcDbEntity
  8
0
  6
Continuous
 62
     7
370
    15
100
AcDbCircle
 10
9366.2036772777
 20
8060.6366630077
 30
0.0
 40
11.04999999999993
100
AcDbArc
 50
95.4526219878
 51
140.6923518839
  0
ARC
  5
AC
330
1F
100
AcDbEntity
  8
0
  6
Continuous
 62
     7
370
    15
100
AcDbCircle
 10
9364.1036772777
 20
8060.6366630077
 30
0.0
 40
11.04999999999993
100
AcDbArc
 50
39.3076481161
 51
84.5473780122
  0
ARC
  5
AD
330
1F
100
AcDbEntity
  8
0
  6
Continuous
 62
     7
370
    15
100
AcDbCircle
 10
9486.2036772777
 20
8060.6366630077
 30
0.0
 40
11.0500000000001
100
AcDbArc
 50
95.4526219878
 51
140.6923518839
  0
ARC
  5
AE
330
1F
100
AcDbEntity
  8
0
  6
Continuous
 62
     7
370
    15
100
AcDbCircle
 10
9484.1036772777
 20
8060.6366630077
 30
0.0
 40
11.05000000000084
100
AcDbArc
 50
39.3076481161
 51
84.5473780122
  0
ARC
  5
AF
330
1F
100
AcDbEntity
  8
0
  6
Continuous
 62
     7
370
    15
100
AcDbCircle
 10
9606.2036772777
 20
8060.6366630077
 30
0.0
 40
11.05000000000084
100
AcDbArc
 50
95.4526219878
 51
140.6923518839
  0
ARC
  5
B0
330
1F
100
AcDbEntity
  8
0
  6
Continuous
 62
     7
370
    15
100
AcDbCircle
 10
9604.1036772777
 20
8060.6366630077
 30
0.0
 40
11.04999999999993
100
AcDbArc
 50
39.3076481161
 51
84.5473780122
  0
ARC
  5
B1
330
1F
100
AcDbEntity
  8
0
  6
Continuous
 62
     7
370
    15
100
AcDbCircle
 10
9726.2036772777
 20
8060.6366630077
 30
0.0
 40
11.0500000000001
100
AcDbArc
 50
95.4526219878
 51
140.6923518839
  0
ARC
  5
B2
330
1F
100
AcDbEntity
  8
0
  6
Continuous
 62
     7
370
    15
100
AcDbCircle
 10
9724.1036772777
 20
8060.6366630077
 30
0.0
 40
11.05000000000084
100
AcDbArc
 50
39.3076481161
 51
84.5473780122
  0
ARC
  5
B3
330
1F
100
AcDbEntity
  8
0
  6
Continuous
 62
     7
370
    15
100
AcDbCircle
 10
9846.2036772777
 20
8060.6366630077
 30
0.0
 40
11.05000000000084
100
AcDbArc
 50
95.4526219878
 51
140.6923518839
  0
ARC
  5
B4
330
1F
100
AcDbEntity
  8
0
  6
Continuous
 62
     7
370
    15
100
AcDbCircle
 10
9844.1036772777
 20
8060.6366630077
 30
0.0
 40
11.04999999999993
100
AcDbArc
 50
39.3076481161
 51
84.5473780122
  0
ARC
  5
B5
330
1F
100
AcDbEntity
  8
0
  6
Continuous
 62
     7
370
    15
100
AcDbCircle
 10
9966.2036772777
 20
8060.6366630077
 30
0.0
 40
11.0500000000001
100
AcDbArc
 50
95.4526219878
 51
140.6923518839
  0
ARC
  5
B6
330
1F
100
AcDbEntity
  8
0
  6
Continuous
 62
     7
370
    15
100
AcDbCircle
 10
9964.1036772777
 20
8060.6366630077
 30
0.0
 40
11.05000000000084
100
AcDbArc
 50
39.3076481161
 51
84.5473780122
  0
ARC
  5
B7
330
1F
100
AcDbEntity
  8
0
  6
Continuous
 62
     7
370
    15
100
AcDbCircle
 10
10086.2036772777
 20
8060.6366630077
 30
0.0
 40
11.05000000000084
100
AcDbArc
 50
95.4526219878
 51
140.6923518839
  0
ARC
  5
B8
330
1F
100
AcDbEntity
  8
0
  6
Continuous
 62
     7
370
    15
100
AcDbCircle
 10
10084.1036772777
 20
8060.6366630077
 30
0.0
 40
11.04999999999993
100
AcDbArc
 50
39.3076481161
 51
84.5473780122
  0
ARC
  5
B9
330
1F
100
AcDbEntity
  8
0
  6
Continuous
 62
     7
370
    15
100
AcDbCircle
 10
10206.2036772777
 20
8060.6366630077
 30
0.0
 40
11.04999999999993
100
AcDbArc
 50
95.4526219878
 51
140.6923518839
  0
ARC
  5
BA
330
1F
100
AcDbEntity
  8
0
  6
Continuous
 62
     7
370
    15
100
AcDbCircle
 10
10204.1036772777
 20
8060.6366630077
 30
0.0
 40
11.05000000000084
100
AcDbArc
 50
39.3076481161
 51
84.5473780122
  0
ARC
  5
BB
330
1F
100
AcDbEntity
  8
0
  6
Continuous
 62
     7
370
    15
100
AcDbCircle
 10
10326.2036772777
 20
8060.6366630077
 30
0.0
 40
11.05000000000084
100
AcDbArc
 50
95.4526219878
 51
140.6923518839
  0
ARC
  5
BC
330
1F
100
AcDbEntity
  8
0
  6
Continuous
 62
     7
370
    15
100
AcDbCircle
 10
10324.1036772777
 20
8060.6366630077
 30
0.0
 40
11.05000000000084
100
AcDbArc
 50
39.3076481161
 51
84.5473780122
  0
ARC
  5
BD
330
1F
100
AcDbEntity
  8
0
  6
Continuous
 62
     7
370
    15
100
AcDbCircle
 10
10446.2036772777
 20
8060.6366630077
 30
0.0
 40
11.04999999999993
100
AcDbArc
 50
95.4526219878
 51
140.6923518839
  0
ARC
  5
BE
330
1F
100
AcDbEntity
  8
0
  6
Continuous
 62
     7
370
    15
100
AcDbCircle
 10
10444.1036772777
 20
8060.6366630077
 30
0.0
 40
11.05000000000084
100
AcDbArc
 50
39.3076481161
 51
84.5473780122
  0
ARC
  5
BF
330
1F
100
AcDbEntity
  8
0
  6
Continuous
 62
     7
370
    15
100
AcDbCircle
 10
11526.2036772777
 20
8060.6366630077
 30
0.0
 40
11.04999999999993
100
AcDbArc
 50
95.4526219878
 51
140.6923518839
  0
ARC
  5
C0
330
1F
100
AcDbEntity
  8
0
  6
Continuous
 62
     7
370
    15
100
AcDbCircle
 10
11524.1036772777
 20
8060.6366630077
 30
0.0
 40
11.05000000000084
100
AcDbArc
 50
39.3076481161
 51
84.5473780122
  0
ARC
  5
C1
330
1F
100
AcDbEntity
  8
0
  6
Continuous
 62
     7
370
    15
100
AcDbCircle
 10
10686.2036772777
 20
8060.6366630077
 30
0.0
 40
11.04999999999993
100
AcDbArc
 50
95.4526219878
 51
140.6923518839
  0
ARC
  5
C2
330
1F
100
AcDbEntity
  8
0
  6
Continuous
 62
     7
370
    15
100
AcDbCircle
 10
10684.1036772777
 20
8060.6366630077
 30
0.0
 40
11.04999999999993
100
AcDbArc
 50
39.3076481161
 51
84.5473780122
  0
ARC
  5
C3
330
1F
100
AcDbEntity
  8
0
  6
Continuous
 62
     7
370
    15
100
AcDbCircle
 10
10806.2036772777
 20
8060.6366630077
 30
0.0
 40
11.05000000000084
100
AcDbArc
 50
95.4526219878
 51
140.6923518839
  0
ARC
  5
C4
330
1F
100
AcDbEntity
  8
0
  6
Continuous
 62
     7
370
    15
100
AcDbCircle
 10
10804.1036772777
 20
8060.6366630077
 30
0.0
 40
11.05000000000084
100
AcDbArc
 50
39.3076481161
 51
84.5473780122
  0
ARC
  5
C5
330
1F
100
AcDbEntity
  8
0
  6
Continuous
 62
     7
370
    15
100
AcDbCircle
 10
10926.2036772777
 20
8060.6366630077
 30
0.0
 40
11.04999999999993
100
AcDbArc
 50
95.4526219878
 51
140.6923518839
  0
ARC
  5
C6
330
1F
100
AcDbEntity
  8
0
  6
Continuous
 62
     7
370
    15
100
AcDbCircle
 10
10924.1036772777
 20
8060.6366630077
 30
0.0
 40
11.05000000000084
100
AcDbArc
 50
39.3076481161
 51
84.5473780122
  0
ARC
  5
C7
330
1F
100
AcDbEntity
  8
0
  6
Continuous
 62
     7
370
    15
100
AcDbCircle
 10
11046.2036772777
 20
8060.6366630077
 30
0.0
 40
11.05000000000084
100
AcDbArc
 50
95.4526219878
 51
140.6923518839
  0
ARC
  5
C8
330
1F
100
AcDbEntity
  8
0
  6
Continuous
 62
     7
370
    15
100
AcDbCircle
 10
11044.1036772777
 20
8060.6366630077
 30
0.0
 40
11.05000000000084
100
AcDbArc
 50
39.3076481161
 51
84.5473780122
  0
ARC
  5
C9
330
1F
100
AcDbEntity
  8
0
  6
Continuous
 62
     7
370
    15
100
AcDbCircle
 10
11166.2036772777
 20
8060.6366630077
 30
0.0
 40
11.04999999999993
100
AcDbArc
 50
95.4526219878
 51
140.6923518839
  0
ARC
  5
CA
330
1F
100
AcDbEntity
  8
0
  6
Continuous
 62
     7
370
    15
100
AcDbCircle
 10
11164.1036772777
 20
8060.6366630077
 30
0.0
 40
11.0500000000001
100
AcDbArc
 50
39.3076481161
 51
84.5473780122
  0
ARC
  5
CB
330
1F
100
AcDbEntity
  8
0
  6
Continuous
 62
     7
370
    15
100
AcDbCircle
 10
11286.2036772777
 20
8060.6366630077
 30
0.0
 40
11.05000000000084
100
AcDbArc
 50
95.4526219878
 51
140.6923518839
  0
ARC
  5
CC
330
1F
100
AcDbEntity
  8
0
  6
Continuous
 62
     7
370
    15
100
AcDbCircle
 10
11284.1036772777
 20
8060.6366630077
 30
0.0
 40
11.05000000000084
100
AcDbArc
 50
39.3076481161
 51
84.5473780122
  0
ARC
  5
CD
330
1F
100
AcDbEntity
  8
0
  6
Continuous
 62
     7
370
    15
100
AcDbCircle
 10
11406.2036772777
 20
8060.6366630077
 30
0.0
 40
11.04999999999993
100
AcDbArc
 50
95.4526219878
 51
140.6923518839
  0
ARC
  5
CE
330
1F
100
AcDbEntity
  8
0
  6
Continuous
 62
     7
370
    15
100
AcDbCircle
 10
11404.1036772777
 20
8060.6366630077
 30
0.0
 40
11.04999999999993
100
AcDbArc
 50
39.3076481161
 51
84.5473780122
  0
ARC
  5
CF
330
1F
100
AcDbEntity
  8
0
  6
Continuous
 62
     7
370
    15
100
AcDbCircle
 10
11766.2036772777
 20
8060.6366630077
 30
0.0
 40
11.0500000000001
100
AcDbArc
 50
95.4526219878
 51
140.6923518839
  0
ARC
  5
D0
330
1F
100
AcDbEntity
  8
0
  6
Continuous
 62
     7
370
    15
100
AcDbCircle
 10
11764.1036772777
 20
8060.6366630077
 30
0.0
 40
11.05000000000084
100
AcDbArc
 50
39.3076481161
 51
84.5473780122
  0
ARC
  5
D1
330
1F
100
AcDbEntity
  8
0
  6
Continuous
 62
     7
370
    15
100
AcDbCircle
 10
11646.2036772777
 20
8060.6366630077
 30
0.0
 40
11.04999999999993
100
AcDbArc
 50
95.4526219878
 51
140.6923518839
  0
ARC
  5
D2
330
1F
100
AcDbEntity
  8
0
  6
Continuous
 62
     7
370
    15
100
AcDbCircle
 10
11644.1036772777
 20
8060.6366630077
 30
0.0
 40
11.04999999999993
100
AcDbArc
 50
39.3076481161
 51
84.5473780122
  0
ARC
  5
D3
330
1F
100
AcDbEntity
  8
0
  6
Continuous
 62
     7
370
    15
100
AcDbCircle
 10
11886.2036772777
 20
8060.6366630077
 30
0.0
 40
11.04999999999993
100
AcDbArc
 50
95.4526219878
 51
140.6923518839
  0
ARC
  5
D4
330
1F
100
AcDbEntity
  8
0
  6
Continuous
 62
     7
370
    15
100
AcDbCircle
 10
11884.1036772777
 20
8060.6366630077
 30
0.0
 40
11.0500000000001
100
AcDbArc
 50
39.3076481161
 51
84.5473780122
  0
LINE
  5
D5
330
1F
100
AcDbEntity
  8
0
  6
Continuous
 62
     7
370
    15
100
AcDbLine
 10
12005.1536772777
 20
8059.6366630077
 30
0.0
 11
9005.1536772777
 21
8059.6366630077
 31
0.0
  0
LINE
  5
D6
330
1F
100
AcDbEntity
  8
0
  6
Continuous
 62
     7
370
    15
100
AcDbLine
 10
12005.1536772777
 20
8067.6366630077
 30
0.0
 11
9005.1536772777
 21
8067.6366630077
 31
0.0
  0
LINE
  5
D7
330
1F
100
AcDbEntity
  8
0
  6
Continuous
 62
     7
370
    15
100
AcDbLine
 10
9005.1536772777
 20
8059.6366630077
 30
0.0
 11
9005.1536772777
 21
8067.6366630077
 31
0.0
  0
LINE
  5
D8
330
1F
100
AcDbEntity
  8
0
  6
Continuous
 62
     7
370
    15
100
AcDbLine
 10
12005.1536772777
 20
8059.6366630077
 30
0.0
 11
12005.1536772777
 21
8067.6366630077
 31
0.0
  0
CIRCLE
  5
D9
330
1F
100
AcDbEntity
  8
0
  6
Continuous
 62
     7
370
    15
100
AcDbCircle
 10
4215.5268935236
 20
3937.9527991218
 30
0.0
 40
7.5
  0
CIRCLE
  5
DA
330
1F
100
AcDbEntity
  8
0
  6
Continuous
 62
     7
370
    15
100
AcDbCircle
 10
4215.5268935236
 20
4057.9527991218
 30
0.0
 40
7.5
  0
CIRCLE
  5
DB
330
1F
100
AcDbEntity
  8
0
  6
Continuous
 62
     7
370
    15
100
AcDbCircle
 10
4215.5268935236
 20
4177.9527991218
 30
0.0
 40
7.5
  0
CIRCLE
  5
DC
330
1F
100
AcDbEntity
  8
0
  6
Continuous
 62
     7
370
    15
100
AcDbCircle
 10
4215.5268935236
 20
4297.9527991218
 30
0.0
 40
7.5
  0
CIRCLE
  5
DD
330
1F
100
AcDbEntity
  8
0
  6
Continuous
 62
     7
370
    15
100
AcDbCircle
 10
4215.5268935236
 20
4417.9527991218
 30
0.0
 40
7.5
  0
CIRCLE
  5
DE
330
1F
100
AcDbEntity
  8
0
  6
Continuous
 62
     7
370
    15
100
AcDbCircle
 10
4215.5268935236
 20
4537.9527991218
 30
0.0
 40
7.5
  0
CIRCLE
  5
DF
330
1F
100
AcDbEntity
  8
0
  6
Continuous
 62
     7
370
    15
100
AcDbCircle
 10
4215.5268935236
 20
2617.9527991218
 30
0.0
 40
7.5
  0
CIRCLE
  5
E0
330
1F
100
AcDbEntity
  8
0
  6
Continuous
 62
     7
370
    15
100
AcDbCircle
 10
4215.5268935236
 20
2737.9527991218
 30
0.0
 40
7.5
  0
CIRCLE
  5
E1
330
1F
100
AcDbEntity
  8
0
  6
Continuous
 62
     7
370
    15
100
AcDbCircle
 10
4215.5268935236
 20
2857.9527991218
 30
0.0
 40
7.5
  0
CIRCLE
  5
E2
330
1F
100
AcDbEntity
  8
0
  6
Continuous
 62
     7
370
    15
100
AcDbCircle
 10
4215.5268935236
 20
2977.9527991218
 30
0.0
 40
7.5
  0
CIRCLE
  5
E3
330
1F
100
AcDbEntity
  8
0
  6
Continuous
 62
     7
370
    15
100
AcDbCircle
 10
4215.5268935236
 20
3097.9527991218
 30
0.0
 40
7.5
  0
CIRCLE
  5
E4
330
1F
100
AcDbEntity
  8
0
  6
Continuous
 62
     7
370
    15
100
AcDbCircle
 10
4215.5268935236
 20
3217.9527991218
 30
0.0
 40
7.5
  0
CIRCLE
  5
E5
330
1F
100
AcDbEntity
  8
0
  6
Continuous
 62
     7
370
    15
100
AcDbCircle
 10
4215.5268935236
 20
3337.9527991218
 30
0.0
 40
7.5
  0
CIRCLE
  5
E6
330
1F
100
AcDbEntity
  8
0
  6
Continuous
 62
     7
370
    15
100
AcDbCircle
 10
4215.5268935236
 20
3457.9527991218
 30
0.0
 40
7.5
  0
CIRCLE
  5
E7
330
1F
100
AcDbEntity
  8
0
  6
Continuous
 62
     7
370
    15
100
AcDbCircle
 10
4215.5268935236
 20
3577.9527991218
 30
0.0
 40
7.5
  0
CIRCLE
  5
E8
330
1F
100
AcDbEntity
  8
0
  6
Continuous
 62
     7
370
    15
100
AcDbCircle
 10
4215.5268935236
 20
3697.9527991218
 30
0.0
 40
7.5
  0
CIRCLE
  5
E9
330
1F
100
AcDbEntity
  8
0
  6
Continuous
 62
     7
370
    15
100
AcDbCircle
 10
4215.5268935236
 20
3817.9527991218
 30
0.0
 40
7.5
  0
CIRCLE
  5
EA
330
1F
100
AcDbEntity
  8
0
  6
Continuous
 62
     7
370
    15
100
AcDbCircle
 10
4215.5268935236
 20
4897.9527991218
 30
0.0
 40
7.5
  0
CIRCLE
  5
EB
330
1F
100
AcDbEntity
  8
0
  6
Continuous
 62
     7
370
    15
100
AcDbCircle
 10
4215.5268935236
 20
5017.9527991218
 30
0.0
 40
7.5
  0
CIRCLE
  5
EC
330
1F
100
AcDbEntity
  8
0
  6
Continuous
 62
     7
370
    15
100
AcDbCircle
 10
4215.5268935236
 20
5137.9527991218
 30
0.0
 40
7.5
  0
CIRCLE
  5
ED
330
1F
100
AcDbEntity
  8
0
  6
Continuous
 62
     7
370
    15
100
AcDbCircle
 10
4215.5268935236
 20
5257.9527991218
 30
0.0
 40
7.5
  0
CIRCLE
  5
EE
330
1F
100
AcDbEntity
  8
0
  6
Continuous
 62
     7
370
    15
100
AcDbCircle
 10
4215.5268935236
 20
5377.9527991218
 30
0.0
 40
7.5
  0
CIRCLE
  5
EF
330
1F
100
AcDbEntity
  8
0
  6
Continuous
 62
     7
370
    15
100
AcDbCircle
 10
4215.5268935236
 20
4777.9527991218
 30
0.0
 40
7.5
  0
CIRCLE
  5
F0
330
1F
100
AcDbEntity
  8
0
  6
Continuous
 62
     7
370
    15
100
AcDbCircle
 10
4215.5268935236
 20
4657.9527991218
 30
0.0
 40
7.5
  0
LINE
  5
F1
330
1F
100
AcDbEntity
  8
0
  6
Continuous
 62
     7
370
    15
100
AcDbLine
 10
4200.5268935236
 20
5497.9527991218
 30
0.0
 11
4200.5268935236
 21
2497.9527991218
 31
0.0
  0
LINE
  5
F2
330
1F
100
AcDbEntity
  8
0
  6
Continuous
 62
     7
370
    15
100
AcDbLine
 10
4230.5268935236
 20
5497.9527991218
 30
0.0
 11
4230.5268935236
 21
2497.9527991218
 31
0.0
  0
LINE
  5
F3
330
1F
100
AcDbEntity
  8
0
  6
Continuous
 62
     7
370
    15
100
AcDbLine
 10
4230.5268935236
 20
5497.9527991218
 30
0.0
 11
4200.5268935236
 21
5497.9527991218
 31
0.0
  0
LINE
  5
F4
330
1F
100
AcDbEntity
  8
0
  6
Continuous
 62
     7
370
    15
100
AcDbLine
 10
4230.5268935236
 20
2497.9527991218
 30
0.0
 11
4200.5268935236
 21
2497.9527991218
 31
0.0
  0
SPLINE
  5
F5
330
1F
100
AcDbEntity
  8
0
  6
Continuous
 62
     7
370
    15
100
AcDbSpline
210
0.0
220
0.0
230
1.0
 70
     8
 71
     3
 72
    11
 73
     7
 74
     0
 42
0.000000001
 43
0.00000001
 40
0.0
 40
0.0
 40
0.0
 40
0.0
 40
0.1841009232774604
 40
0.4995720853638456
 40
0.8056069824618887
 40
1.0
 40
1.0
 40
1.0
 40
1.0
 10
9326.754827894654
 20
4184.202721075547
 30
0.0
 10
9326.544417784102
 20
4184.395851792343
 30
0.0
 10
9325.973453685509
 20
4184.919926920374
 30
0.0
 10
9324.906293145654
 20
4185.579796730528
 30
0.0
 10
9323.762500730081
 20
4186.123964250369
 30
0.0
 10
9323.020091864075
 20
4186.347953711029
 30
0.0
 10
9322.731700478444
 20
4186.434963220053
 30
0.0
  0
SPLINE
  5
F6
330
1F
100
AcDbEntity
  8
0
  6
Continuous
 62
     7
370
    15
100
AcDbSpline
210
0.0
220
0.0
230
1.0
 70
     8
 71
     3
 72
    14
 73
    10
 74
     0
 42
0.000000001
 43
0.00000001
 40
0.0
 40
0.0
 40
0.0
 40
0.0
 40
0.1486649236511788
 40
0.3021955485461913
 40
0.4617228394955747
 40
0.6231072223590202
 40
0.7860588585870927
 40
0.952857178783647
 40
1.0
 40
1.0
 40
1.0
 40
1.0
 10
9322.731700478444
 20
4186.434963220053
 30
0.0
 10
9322.25920198639
 20
4186.541155216105
 30
0.0
 10
9321.298740449889
 20
4186.75701479959
 30
0.0
 10
9319.78313894932
 20
4186.784107350021
 30
0.0
 10
9318.249304539737
 20
4186.564025559403
 30
0.0
 10
9316.743705367422
 20
4186.08255161253
 30
0.0
 10
9315.32762846759
 20
4185.343716139751
 30
0.0
 10
9314.303012991855
 20
4184.650815699835
 30
0.0
 10
9313.819406157594
 20
4184.149886164621
 30
0.0
 10
9313.712841378252
 20
4184.039504256005
 30
0.0
  0
SPLINE
  5
F7
330
1F
100
AcDbEntity
  8
0
  6
Continuous
 62
     7
370
    15
100
AcDbSpline
210
0.0
220
0.0
230
1.0
 70
     8
 71
     3
 72
    11
 73
     7
 74
     0
 42
0.000000001
 43
0.00000001
 40
0.0
 40
0.0
 40
0.0
 40
0.0
 40
0.1841009232774295
 40
0.4995720853638469
 40
0.8056069824619229
 40
1.0
 40
1.0
 40
1.0
 40
1.0
 10
9382.75827456626
 20
4238.863801892059
 30
0.0
 10
9382.54786445571
 20
4239.056932608854
 30
0.0
 10
9381.976900357115
 20
4239.581007736887
 30
0.0
 10
9380.909739817262
 20
4240.24087754704
 30
0.0
 10
9379.76594740169
 20
4240.785045066881
 30
0.0
 10
9379.023538535681
 20
4241.009034527542
 30
0.0
 10
9378.735147150051
 20
4241.096044036566
 30
0.0
  0
SPLINE
  5
F8
330
1F
100
AcDbEntity
  8
0
  6
Continuous
 62
     7
370
    15
100
AcDbSpline
210
0.0
220
0.0
230
1.0
 70
     8
 71
     3
 72
    14
 73
    10
 74
     0
 42
0.000000001
 43
0.00000001
 40
0.0
 40
0.0
 40
0.0
 40
0.0
 40
0.1486649236511786
 40
0.3021955485461895
 40
0.4617228394955755
 40
0.6231072223590202
 40
0.7860588585870932
 40
0.9528571787836486
 40
1.0
 40
1.0
 40
1.0
 40
1.0
 10
9378.735147150051
 20
4241.096044036566
 30
0.0
 10
9378.262648657996
 20
4241.202236032618
 30
0.0
 10
9377.302187121495
 20
4241.418095616104
 30
0.0
 10
9375.786585620926
 20
4241.445188166535
 30
0.0
 10
9374.252751211345
 20
4241.225106375916
 30
0.0
 10
9372.74715203903
 20
4240.743632429042
 30
0.0
 10
9371.331075139196
 20
4240.004796956264
 30
0.0
 10
9370.306459663461
 20
4239.311896516348
 30
0.0
 10
9369.8228528292
 20
4238.810966981134
 30
0.0
 10
9369.71628804986
 20
4238.700585072517
 30
0.0
  0
SPLINE
  5
F9
330
1F
100
AcDbEntity
  8
0
  6
Continuous
 62
     7
370
    15
100
AcDbSpline
210
0.0
220
0.0
230
1.0
 70
     8
 71
     3
 72
    11
 73
     7
 74
     0
 42
0.000000001
 43
0.00000001
 40
0.0
 40
0.0
 40
0.0
 40
0.0
 40
0.1841009232774264
 40
0.4995720853637858
 40
0.8056069824618944
 40
1.0
 40
1.0
 40
1.0
 40
1.0
 10
9438.76172123787
 20
4293.524882708572
 30
0.0
 10
9438.551311127318
 20
4293.718013425368
 30
0.0
 10
9437.980347028722
 20
4294.242088553399
 30
0.0
 10
9436.913186488868
 20
4294.901958363554
 30
0.0
 10
9435.769394073295
 20
4295.446125883394
 30
0.0
 10
9435.02698520729
 20
4295.670115344054
 30
0.0
 10
9434.73859382166
 20
4295.757124853078
 30
0.0
  0
SPLINE
  5
FA
330
1F
100
AcDbEntity
  8
0
  6
Continuous
 62
     7
370
    15
100
AcDbSpline
210
0.0
220
0.0
230
1.0
 70
     8
 71
     3
 72
    14
 73
    10
 74
     0
 42
0.000000001
 43
0.00000001
 40
0.0
 40
0.0
 40
0.0
 40
0.0
 40
0.1486649236511789
 40
0.3021955485461928
 40
0.461722839495582
 40
0.6231072223590227
 40
0.7860588585870941
 40
0.9528571787836477
 40
1.0
 40
1.0
 40
1.0
 40
1.0
 10
9434.73859382166
 20
4295.757124853078
 30
0.0
 10
9434.266095329605
 20
4295.863316849131
 30
0.0
 10
9433.305633793105
 20
4296.079176432616
 30
0.0
 10
9431.790032292534
 20
4296.106268983047
 30
0.0
 10
9430.25619788295
 20
4295.886187192428
 30
0.0
 10
9428.750598710638
 20
4295.404713245555
 30
0.0
 10
9427.334521810804
 20
4294.665877772776
 30
0.0
 10
9426.309906335071
 20
4293.972977332861
 30
0.0
 10
9425.826299500806
 20
4293.472047797647
 30
0.0
 10
9425.719734721468
 20
4293.361665889031
 30
0.0
  0
SPLINE
  5
FB
330
1F
100
AcDbEntity
  8
0
  6
Continuous
 62
     7
370
    15
100
AcDbSpline
210
0.0
220
0.0
230
1.0
 70
     8
 71
     3
 72
    11
 73
     7
 74
     0
 42
0.000000001
 43
0.00000001
 40
0.0
 40
0.0
 40
0.0
 40
0.0
 40
0.1841009232774264
 40
0.4995720853637858
 40
0.8056069824618944
 40
1.0
 40
1.0
 40
1.0
 40
1.0
 10
9494.765167909476
 20
4348.185963525085
 30
0.0
 10
9494.554757798924
 20
4348.37909424188
 30
0.0
 10
9493.98379370033
 20
4348.903169369913
 30
0.0
 10
9492.916633160476
 20
4349.563039180066
 30
0.0
 10
9491.772840744903
 20
4350.107206699906
 30
0.0
 10
9491.030431878897
 20
4350.331196160568
 30
0.0
 10
9490.742040493265
 20
4350.418205669592
 30
0.0
  0
SPLINE
  5
FC
330
1F
100
AcDbEntity
  8
0
  6
Continuous
 62
     7
370
    15
100
AcDbSpline
210
0.0
220
0.0
230
1.0
 70
     8
 71
     3
 72
    14
 73
    10
 74
     0
 42
0.000000001
 43
0.00000001
 40
0.0
 40
0.0
 40
0.0
 40
0.0
 40
0.1486649236511789
 40
0.3021955485461928
 40
0.461722839495582
 40
0.6231072223590227
 40
0.7860588585870941
 40
0.9528571787836477
 40
1.0
 40
1.0
 40
1.0
 40
1.0
 10
9490.742040493265
 20
4350.418205669592
 30
0.0
 10
9490.269542001211
 20
4350.524397665644
 30
0.0
 10
9489.30908046471
 20
4350.740257249129
 30
0.0
 10
9487.793478964142
 20
4350.76734979956
 30
0.0
 10
9486.259644554559
 20
4350.547268008942
 30
0.0
 10
9484.754045382244
 20
4350.065794062068
 30
0.0
 10
9483.337968482412
 20
4349.326958589289
 30
0.0
 10
9482.313353006677
 20
4348.634058149373
 30
0.0
 10
9481.829746172416
 20
4348.133128614159
 30
0.0
 10
9481.723181393074
 20
4348.022746705543
 30
0.0
  0
SPLINE
  5
FD
330
1F
100
AcDbEntity
  8
0
  6
Continuous
 62
     7
370
    15
100
AcDbSpline
210
0.0
220
0.0
230
1.0
 70
     8
 71
     3
 72
    11
 73
     7
 74
     0
 42
0.000000001
 43
0.00000001
 40
0.0
 40
0.0
 40
0.0
 40
0.0
 40
0.1841009232776019
 40
0.4995720853639949
 40
0.8056069824621548
 40
1.0
 40
1.0
 40
1.0
 40
1.0
 10
9550.768614581082
 20
4402.847044341598
 30
0.0
 10
9550.558204470533
 20
4403.040175058394
 30
0.0
 10
9549.987240371938
 20
4403.564250186425
 30
0.0
 10
9548.920079832082
 20
4404.224119996579
 30
0.0
 10
9547.77628741651
 20
4404.768287516419
 30
0.0
 10
9547.033878550505
 20
4404.99227697708
 30
0.0
 10
9546.745487164873
 20
4405.079286486104
 30
0.0
  0
SPLINE
  5
FE
330
1F
100
AcDbEntity
  8
0
  6
Continuous
 62
     7
370
    15
100
AcDbSpline
210
0.0
220
0.0
230
1.0
 70
     8
 71
     3
 72
    14
 73
    10
 74
     0
 42
0.000000001
 43
0.00000001
 40
0.0
 40
0.0
 40
0.0
 40
0.0
 40
0.14866492365118
 40
0.3021955485462059
 40
0.4617228394955966
 40
0.6231072223590333
 40
0.7860588585871081
 40
0.9528571787836542
 40
1.0
 40
1.0
 40
1.0
 40
1.0
 10
9546.745487164873
 20
4405.079286486104
 30
0.0
 10
9546.27298867282
 20
4405.185478482156
 30
0.0
 10
9545.312527136319
 20
4405.401338065642
 30
0.0
 10
9543.796925635748
 20
4405.428430616072
 30
0.0
 10
9542.263091226167
 20
4405.208348825454
 30
0.0
 10
9540.757492053852
 20
4404.72687487858
 30
0.0
 10
9539.34141515402
 20
4403.988039405802
 30
0.0
 10
9538.316799678285
 20
4403.295138965887
 30
0.0
 10
9537.833192844022
 20
4402.794209430672
 30
0.0
 10
9537.726628064682
 20
4402.683827522056
 30
0.0
  0
SPLINE
  5
FF
330
1F
100
AcDbEntity
  8
0
  6
Continuous
 62
     7
370
    15
100
AcDbSpline
210
0.0
220
0.0
230
1.0
 70
     8
 71
     3
 72
    11
 73
     7
 74
     0
 42
0.000000001
 43
0.00000001
 40
0.0
 40
0.0
 40
0.0
 40
0.0
 40
0.1841009232776019
 40
0.4995720853639949
 40
0.8056069824621548
 40
1.0
 40
1.0
 40
1.0
 40
1.0
 10
9606.772061252692
 20
4457.50812515811
 30
0.0
 10
9606.56165114214
 20
4457.701255874907
 30
0.0
 10
9605.990687043544
 20
4458.225331002938
 30
0.0
 10
9604.92352650369
 20
4458.885200813092
 30
0.0
 10
9603.779734088117
 20
4459.429368332932
 30
0.0
 10
9603.03732522211
 20
4459.653357793592
 30
0.0
 10
9602.748933836481
 20
4459.740367302617
 30
0.0
  0
SPLINE
  5
100
330
1F
100
AcDbEntity
  8
0
  6
Continuous
 62
     7
370
    15
100
AcDbSpline
210
0.0
220
0.0
230
1.0
 70
     8
 71
     3
 72
    14
 73
    10
 74
     0
 42
0.000000001
 43
0.00000001
 40
0.0
 40
0.0
 40
0.0
 40
0.0
 40
0.1486649236511811
 40
0.302195548546208
 40
0.4617228394955998
 40
0.6231072223590376
 40
0.7860588585871136
 40
0.9528571787836608
 40
1.0
 40
1.0
 40
1.0
 40
1.0
 10
9602.748933836481
 20
4459.740367302617
 30
0.0
 10
9602.276435344427
 20
4459.846559298669
 30
0.0
 10
9601.315973807927
 20
4460.062418882155
 30
0.0
 10
9599.800372307356
 20
4460.089511432585
 30
0.0
 10
9598.266537897773
 20
4459.869429641967
 30
0.0
 10
9596.76093872546
 20
4459.387955695093
 30
0.0
 10
9595.344861825626
 20
4458.649120222314
 30
0.0
 10
9594.320246349891
 20
4457.956219782399
 30
0.0
 10
9593.83663951563
 20
4457.455290247184
 30
0.0
 10
9593.73007473629
 20
4457.344908338569
 30
0.0
  0
SPLINE
  5
101
330
1F
100
AcDbEntity
  8
0
  6
Continuous
 62
     7
370
    15
100
AcDbSpline
210
0.0
220
0.0
230
1.0
 70
     8
 71
     3
 72
    11
 73
     7
 74
     0
 42
0.000000001
 43
0.00000001
 40
0.0
 40
0.0
 40
0.0
 40
0.0
 40
0.1841009232776019
 40
0.4995720853639949
 40
0.8056069824621548
 40
1.0
 40
1.0
 40
1.0
 40
1.0
 10
9662.775507924298
 20
4512.169205974624
 30
0.0
 10
9662.565097813747
 20
4512.36233669142
 30
0.0
 10
9661.994133715152
 20
4512.886411819451
 30
0.0
 10
9660.926973175297
 20
4513.546281629605
 30
0.0
 10
9659.783180759725
 20
4514.090449149445
 30
0.0
 10
9659.040771893719
 20
4514.314438610106
 30
0.0
 10
9658.75238050809
 20
4514.40144811913
 30
0.0
  0
SPLINE
  5
102
330
1F
100
AcDbEntity
  8
0
  6
Continuous
 62
     7
370
    15
100
AcDbSpline
210
0.0
220
0.0
230
1.0
 70
     8
 71
     3
 72
    14
 73
    10
 74
     0
 42
0.000000001
 43
0.00000001
 40
0.0
 40
0.0
 40
0.0
 40
0.0
 40
0.14866492365118
 40
0.3021955485462059
 40
0.4617228394955966
 40
0.6231072223590333
 40
0.7860588585871081
 40
0.9528571787836542
 40
1.0
 40
1.0
 40
1.0
 40
1.0
 10
9658.75238050809
 20
4514.40144811913
 30
0.0
 10
9658.279882016033
 20
4514.507640115182
 30
0.0
 10
9657.319420479533
 20
4514.723499698667
 30
0.0
 10
9655.803818978964
 20
4514.750592249097
 30
0.0
 10
9654.269984569382
 20
4514.53051045848
 30
0.0
 10
9652.764385397068
 20
4514.049036511606
 30
0.0
 10
9651.348308497234
 20
4513.310201038827
 30
0.0
 10
9650.323693021499
 20
4512.617300598912
 30
0.0
 10
9649.840086187238
 20
4512.116371063697
 30
0.0
 10
9649.733521407896
 20
4512.005989155082
 30
0.0
  0
SPLINE
  5
103
330
1F
100
AcDbEntity
  8
0
  6
Continuous
 62
     7
370
    15
100
AcDbSpline
210
0.0
220
0.0
230
1.0
 70
     8
 71
     3
 72
    11
 73
     7
 74
     0
 42
0.000000001
 43
0.00000001
 40
0.0
 40
0.0
 40
0.0
 40
0.0
 40
0.1841009232776019
 40
0.4995720853639949
 40
0.8056069824621548
 40
1.0
 40
1.0
 40
1.0
 40
1.0
 10
9718.778954595906
 20
4566.830286791136
 30
0.0
 10
9718.568544485355
 20
4567.023417507932
 30
0.0
 10
9717.99758038676
 20
4567.547492635964
 30
0.0
 10
9716.930419846905
 20
4568.207362446117
 30
0.0
 10
9715.786627431333
 20
4568.751529965958
 30
0.0
 10
9715.044218565326
 20
4568.975519426618
 30
0.0
 10
9714.755827179697
 20
4569.062528935643
 30
0.0
  0
SPLINE
  5
104
330
1F
100
AcDbEntity
  8
0
  6
Continuous
 62
     7
370
    15
100
AcDbSpline
210
0.0
220
0.0
230
1.0
 70
     8
 71
     3
 72
    14
 73
    10
 74
     0
 42
0.000000001
 43
0.00000001
 40
0.0
 40
0.0
 40
0.0
 40
0.0
 40
0.14866492365118
 40
0.3021955485462059
 40
0.4617228394955966
 40
0.6231072223590333
 40
0.7860588585871081
 40
0.9528571787836542
 40
1.0
 40
1.0
 40
1.0
 40
1.0
 10
9714.755827179697
 20
4569.062528935643
 30
0.0
 10
9714.283328687641
 20
4569.168720931695
 30
0.0
 10
9713.32286715114
 20
4569.38458051518
 30
0.0
 10
9711.807265650572
 20
4569.411673065611
 30
0.0
 10
9710.273431240988
 20
4569.191591274993
 30
0.0
 10
9708.767832068674
 20
4568.710117328118
 30
0.0
 10
9707.351755168842
 20
4567.97128185534
 30
0.0
 10
9706.327139693107
 20
4567.278381415425
 30
0.0
 10
9705.843532858844
 20
4566.77745188021
 30
0.0
 10
9705.736968079504
 20
4566.667069971594
 30
0.0
  0
SPLINE
  5
105
330
1F
100
AcDbEntity
  8
0
  6
Continuous
 62
     7
370
    15
100
AcDbSpline
210
0.0
220
0.0
230
1.0
 70
     8
 71
     3
 72
    11
 73
     7
 74
     0
 42
0.000000001
 43
0.00000001
 40
0.0
 40
0.0
 40
0.0
 40
0.0
 40
0.184100923277561
 40
0.4995720853639517
 40
0.8056069824620273
 40
1.0
 40
1.0
 40
1.0
 40
1.0
 10
9774.782401267514
 20
4621.491367607649
 30
0.0
 10
9774.571991156961
 20
4621.684498324445
 30
0.0
 10
9774.001027058366
 20
4622.208573452476
 30
0.0
 10
9772.933866518513
 20
4622.868443262631
 30
0.0
 10
9771.79007410294
 20
4623.41261078247
 30
0.0
 10
9771.047665236934
 20
4623.63660024313
 30
0.0
 10
9770.759273851303
 20
4623.723609752155
 30
0.0
  0
SPLINE
  5
106
330
1F
100
AcDbEntity
  8
0
  6
Continuous
 62
     7
370
    15
100
AcDbSpline
210
0.0
220
0.0
230
1.0
 70
     8
 71
     3
 72
    14
 73
    10
 74
     0
 42
0.000000001
 43
0.00000001
 40
0.0
 40
0.0
 40
0.0
 40
0.0
 40
0.1486649236511818
 40
0.3021955485461975
 40
0.4617228394955769
 40
0.6231072223590426
 40
0.7860588585871108
 40
0.9528571787836767
 40
1.0
 40
1.0
 40
1.0
 40
1.0
 10
9770.759273851303
 20
4623.723609752155
 30
0.0
 10
9770.286775359249
 20
4623.829801748208
 30
0.0
 10
9769.326313822748
 20
4624.045661331693
 30
0.0
 10
9767.81071232218
 20
4624.072753882124
 30
0.0
 10
9766.276877912596
 20
4623.852672091505
 30
0.0
 10
9764.771278740282
 20
4623.371198144631
 30
0.0
 10
9763.35520184045
 20
4622.632362671852
 30
0.0
 10
9762.330586364713
 20
4621.939462231937
 30
0.0
 10
9761.846979530454
 20
4621.438532696723
 30
0.0
 10
9761.740414751112
 20
4621.328150788107
 30
0.0
  0
SPLINE
  5
107
330
1F
100
AcDbEntity
  8
0
  6
Continuous
 62
     7
370
    15
100
AcDbSpline
210
0.0
220
0.0
230
1.0
 70
     8
 71
     3
 72
    11
 73
     7
 74
     0
 42
0.000000001
 43
0.00000001
 40
0.0
 40
0.0
 40
0.0
 40
0.0
 40
0.1841009232775571
 40
0.4995720853639494
 40
0.8056069824620264
 40
1.0
 40
1.0
 40
1.0
 40
1.0
 10
9830.78584793912
 20
4676.152448424162
 30
0.0
 10
9830.575437828571
 20
4676.345579140957
 30
0.0
 10
9830.004473729976
 20
4676.86965426899
 30
0.0
 10
9828.93731319012
 20
4677.529524079143
 30
0.0
 10
9827.793520774549
 20
4678.073691598984
 30
0.0
 10
9827.05111190854
 20
4678.297681059644
 30
0.0
 10
9826.762720522911
 20
4678.384690568668
 30
0.0
  0
SPLINE
  5
108
330
1F
100
AcDbEntity
  8
0
  6
Continuous
 62
     7
370
    15
100
AcDbSpline
210
0.0
220
0.0
230
1.0
 70
     8
 71
     3
 72
    14
 73
    10
 74
     0
 42
0.000000001
 43
0.00000001
 40
0.0
 40
0.0
 40
0.0
 40
0.0
 40
0.1486649236511818
 40
0.3021955485461975
 40
0.4617228394955769
 40
0.6231072223590426
 40
0.7860588585871108
 40
0.9528571787836767
 40
1.0
 40
1.0
 40
1.0
 40
1.0
 10
9826.762720522911
 20
4678.384690568668
 30
0.0
 10
9826.290222030857
 20
4678.490882564721
 30
0.0
 10
9825.329760494356
 20
4678.706742148206
 30
0.0
 10
9823.814158993786
 20
4678.733834698637
 30
0.0
 10
9822.280324584204
 20
4678.513752908018
 30
0.0
 10
9820.77472541189
 20
4678.032278961144
 30
0.0
 10
9819.358648512058
 20
4677.293443488365
 30
0.0
 10
9818.334033036323
 20
4676.60054304845
 30
0.0
 10
9817.85042620206
 20
4676.099613513235
 30
0.0
 10
9817.74386142272
 20
4675.98923160462
 30
0.0
  0
SPLINE
  5
109
330
1F
100
AcDbEntity
  8
0
  6
Continuous
 62
     7
370
    15
100
AcDbSpline
210
0.0
220
0.0
230
1.0
 70
     8
 71
     3
 72
    11
 73
     7
 74
     0
 42
0.000000001
 43
0.00000001
 40
0.0
 40
0.0
 40
0.0
 40
0.0
 40
0.184100923277561
 40
0.4995720853639517
 40
0.8056069824620273
 40
1.0
 40
1.0
 40
1.0
 40
1.0
 10
9886.78929461073
 20
4730.813529240674
 30
0.0
 10
9886.578884500177
 20
4731.00665995747
 30
0.0
 10
9886.007920401582
 20
4731.530735085501
 30
0.0
 10
9884.940759861727
 20
4732.190604895656
 30
0.0
 10
9883.796967446155
 20
4732.734772415496
 30
0.0
 10
9883.054558580148
 20
4732.958761876156
 30
0.0
 10
9882.766167194519
 20
4733.04577138518
 30
0.0
  0
SPLINE
  5
10A
330
1F
100
AcDbEntity
  8
0
  6
Continuous
 62
     7
370
    15
100
AcDbSpline
210
0.0
220
0.0
230
1.0
 70
     8
 71
     3
 72
    14
 73
    10
 74
     0
 42
0.000000001
 43
0.00000001
 40
0.0
 40
0.0
 40
0.0
 40
0.0
 40
0.1486649236511818
 40
0.3021955485461975
 40
0.4617228394955769
 40
0.6231072223590426
 40
0.7860588585871108
 40
0.9528571787836767
 40
1.0
 40
1.0
 40
1.0
 40
1.0
 10
9882.766167194519
 20
4733.04577138518
 30
0.0
 10
9882.293668702465
 20
4733.151963381233
 30
0.0
 10
9881.333207165964
 20
4733.367822964718
 30
0.0
 10
9879.817605665394
 20
4733.394915515149
 30
0.0
 10
9878.28377125581
 20
4733.17483372453
 30
0.0
 10
9876.778172083496
 20
4732.693359777657
 30
0.0
 10
9875.362095183664
 20
4731.954524304878
 30
0.0
 10
9874.337479707929
 20
4731.261623864963
 30
0.0
 10
9873.853872873668
 20
4730.760694329749
 30
0.0
 10
9873.747308094325
 20
4730.650312421132
 30
0.0
  0
SPLINE
  5
10B
330
1F
100
AcDbEntity
  8
0
  6
Continuous
 62
     7
370
    15
100
AcDbSpline
210
0.0
220
0.0
230
1.0
 70
     8
 71
     3
 72
    11
 73
     7
 74
     0
 42
0.000000001
 43
0.00000001
 40
0.0
 40
0.0
 40
0.0
 40
0.0
 40
0.184100923277561
 40
0.4995720853639517
 40
0.8056069824620273
 40
1.0
 40
1.0
 40
1.0
 40
1.0
 10
9942.792741282336
 20
4785.474610057187
 30
0.0
 10
9942.582331171785
 20
4785.667740773983
 30
0.0
 10
9942.01136707319
 20
4786.191815902014
 30
0.0
 10
9940.944206533335
 20
4786.851685712169
 30
0.0
 10
9939.800414117763
 20
4787.395853232008
 30
0.0
 10
9939.058005251756
 20
4787.619842692669
 30
0.0
 10
9938.769613866127
 20
4787.706852201693
 30
0.0
  0
SPLINE
  5
10C
330
1F
100
AcDbEntity
  8
0
  6
Continuous
 62
     7
370
    15
100
AcDbSpline
210
0.0
220
0.0
230
1.0
 70
     8
 71
     3
 72
    14
 73
    10
 74
     0
 42
0.000000001
 43
0.00000001
 40
0.0
 40
0.0
 40
0.0
 40
0.0
 40
0.1486649236511818
 40
0.3021955485461975
 40
0.4617228394955769
 40
0.6231072223590426
 40
0.7860588585871108
 40
0.9528571787836767
 40
1.0
 40
1.0
 40
1.0
 40
1.0
 10
9938.769613866127
 20
4787.706852201693
 30
0.0
 10
9938.297115374071
 20
4787.813044197746
 30
0.0
 10
9937.33665383757
 20
4788.028903781232
 30
0.0
 10
9935.821052337002
 20
4788.055996331662
 30
0.0
 10
9934.28721792742
 20
4787.835914541043
 30
0.0
 10
9932.781618755105
 20
4787.354440594169
 30
0.0
 10
9931.365541855272
 20
4786.615605121391
 30
0.0
 10
9930.340926379537
 20
4785.922704681475
 30
0.0
 10
9929.857319545275
 20
4785.421775146261
 30
0.0
 10
9929.750754765933
 20
4785.311393237645
 30
0.0
  0
SPLINE
  5
10D
330
1F
100
AcDbEntity
  8
0
  6
Continuous
 62
     7
370
    15
100
AcDbSpline
210
0.0
220
0.0
230
1.0
 70
     8
 71
     3
 72
    11
 73
     7
 74
     0
 42
0.000000001
 43
0.00000001
 40
0.0
 40
0.0
 40
0.0
 40
0.0
 40
0.184100923277561
 40
0.4995720853639517
 40
0.8056069824620273
 40
1.0
 40
1.0
 40
1.0
 40
1.0
 10
9998.796187953943
 20
4840.1356908737
 30
0.0
 10
9998.585777843393
 20
4840.328821590496
 30
0.0
 10
9998.014813744798
 20
4840.852896718527
 30
0.0
 10
9996.947653204943
 20
4841.512766528682
 30
0.0
 10
9995.80386078937
 20
4842.056934048522
 30
0.0
 10
9995.061451923364
 20
4842.280923509182
 30
0.0
 10
9994.773060537733
 20
4842.367933018206
 30
0.0
  0
SPLINE
  5
10E
330
1F
100
AcDbEntity
  8
0
  6
Continuous
 62
     7
370
    15
100
AcDbSpline
210
0.0
220
0.0
230
1.0
 70
     8
 71
     3
 72
    14
 73
    10
 74
     0
 42
0.000000001
 43
0.00000001
 40
0.0
 40
0.0
 40
0.0
 40
0.0
 40
0.1486649236511818
 40
0.3021955485461975
 40
0.4617228394955769
 40
0.6231072223590426
 40
0.7860588585871108
 40
0.9528571787836767
 40
1.0
 40
1.0
 40
1.0
 40
1.0
 10
9994.773060537733
 20
4842.367933018206
 30
0.0
 10
9994.30056204568
 20
4842.474125014259
 30
0.0
 10
9993.34010050918
 20
4842.689984597744
 30
0.0
 10
9991.824499008608
 20
4842.717077148174
 30
0.0
 10
9990.290664599026
 20
4842.496995357556
 30
0.0
 10
9988.785065426711
 20
4842.015521410683
 30
0.0
 10
9987.36898852688
 20
4841.276685937903
 30
0.0
 10
9986.344373051144
 20
4840.583785497988
 30
0.0
 10
9985.860766216882
 20
4840.082855962774
 30
0.0
 10
9985.754201437541
 20
4839.972474054159
 30
0.0
  0
SPLINE
  5
10F
330
1F
100
AcDbEntity
  8
0
  6
Continuous
 62
     7
370
    15
100
AcDbSpline
210
0.0
220
0.0
230
1.0
 70
     8
 71
     3
 72
    11
 73
     7
 74
     0
 42
0.000000001
 43
0.00000001
 40
0.0
 40
0.0
 40
0.0
 40
0.0
 40
0.1841009232775571
 40
0.4995720853639494
 40
0.8056069824620264
 40
1.0
 40
1.0
 40
1.0
 40
1.0
 10
10054.79963462555
 20
4894.796771690213
 30
0.0
 10
10054.589224515
 20
4894.989902407008
 30
0.0
 10
10054.0182604164
 20
4895.513977535041
 30
0.0
 10
10052.95109987655
 20
4896.173847345194
 30
0.0
 10
10051.80730746098
 20
4896.718014865035
 30
0.0
 10
10051.06489859497
 20
4896.942004325695
 30
0.0
 10
10050.77650720934
 20
4897.029013834719
 30
0.0
  0
SPLINE
  5
110
330
1F
100
AcDbEntity
  8
0
  6
Continuous
 62
     7
370
    15
100
AcDbSpline
210
0.0
220
0.0
230
1.0
 70
     8
 71
     3
 72
    14
 73
    10
 74
     0
 42
0.000000001
 43
0.00000001
 40
0.0
 40
0.0
 40
0.0
 40
0.0
 40
0.1486649236511798
 40
0.3021955485461933
 40
0.4617228394955705
 40
0.6231072223590342
 40
0.7860588585871
 40
0.9528571787836638
 40
1.0
 40
1.0
 40
1.0
 40
1.0
 10
10050.77650720934
 20
4897.029013834719
 30
0.0
 10
10050.30400871729
 20
4897.135205830771
 30
0.0
 10
10049.34354718079
 20
4897.351065414257
 30
0.0
 10
10047.82794568022
 20
4897.378157964687
 30
0.0
 10
10046.29411127063
 20
4897.158076174069
 30
0.0
 10
10044.78851209832
 20
4896.676602227195
 30
0.0
 10
10043.37243519849
 20
4895.937766754417
 30
0.0
 10
10042.34781972275
 20
4895.244866314501
 30
0.0
 10
10041.86421288849
 20
4894.743936779287
 30
0.0
 10
10041.75764810915
 20
4894.63355487067
 30
0.0
  0
SPLINE
  5
111
330
1F
100
AcDbEntity
  8
0
  6
Continuous
 62
     7
370
    15
100
AcDbSpline
210
0.0
220
0.0
230
1.0
 70
     8
 71
     3
 72
    11
 73
     7
 74
     0
 42
0.000000001
 43
0.00000001
 40
0.0
 40
0.0
 40
0.0
 40
0.0
 40
0.1841009232775571
 40
0.4995720853639494
 40
0.8056069824620264
 40
1.0
 40
1.0
 40
1.0
 40
1.0
 10
10110.80308129716
 20
4949.457852506725
 30
0.0
 10
10110.59267118661
 20
4949.650983223522
 30
0.0
 10
10110.02170708801
 20
4950.175058351552
 30
0.0
 10
10108.95454654816
 20
4950.834928161707
 30
0.0
 10
10107.81075413258
 20
4951.379095681546
 30
0.0
 10
10107.06834526658
 20
4951.603085142207
 30
0.0
 10
10106.77995388095
 20
4951.690094651231
 30
0.0
  0
SPLINE
  5
112
330
1F
100
AcDbEntity
  8
0
  6
Continuous
 62
     7
370
    15
100
AcDbSpline
210
0.0
220
0.0
230
1.0
 70
     8
 71
     3
 72
    14
 73
    10
 74
     0
 42
0.000000001
 43
0.00000001
 40
0.0
 40
0.0
 40
0.0
 40
0.0
 40
0.1486649236511798
 40
0.3021955485461933
 40
0.4617228394955705
 40
0.6231072223590342
 40
0.7860588585871
 40
0.9528571787836638
 40
1.0
 40
1.0
 40
1.0
 40
1.0
 10
10106.77995388095
 20
4951.690094651231
 30
0.0
 10
10106.30745538889
 20
4951.796286647284
 30
0.0
 10
10105.34699385239
 20
4952.01214623077
 30
0.0
 10
10103.83139235182
 20
4952.0392387812
 30
0.0
 10
10102.29755794224
 20
4951.819156990581
 30
0.0
 10
10100.79195876993
 20
4951.337683043708
 30
0.0
 10
10099.37588187009
 20
4950.598847570929
 30
0.0
 10
10098.35126639436
 20
4949.905947131014
 30
0.0
 10
10097.8676595601
 20
4949.4050175958
 30
0.0
 10
10097.76109478076
 20
4949.294635687183
 30
0.0
  0
SPLINE
  5
113
330
1F
100
AcDbEntity
  8
0
  6
Continuous
 62
     7
370
    15
100
AcDbSpline
210
0.0
220
0.0
230
1.0
 70
     8
 71
     3
 72
    11
 73
     7
 74
     0
 42
0.000000001
 43
0.00000001
 40
0.0
 40
0.0
 40
0.0
 40
0.0
 40
0.1841009232775571
 40
0.4995720853639494
 40
0.8056069824620264
 40
1.0
 40
1.0
 40
1.0
 40
1.0
 10
10166.80652796877
 20
5004.118933323239
 30
0.0
 10
10166.59611785821
 20
5004.312064040034
 30
0.0
 10
10166.02515375962
 20
5004.836139168066
 30
0.0
 10
10164.95799321976
 20
5005.49600897822
 30
0.0
 10
10163.81420080419
 20
5006.04017649806
 30
0.0
 10
10163.07179193819
 20
5006.26416595872
 30
0.0
 10
10162.78340055255
 20
5006.351175467745
 30
0.0
  0
SPLINE
  5
114
330
1F
100
AcDbEntity
  8
0
  6
Continuous
 62
     7
370
    15
100
AcDbSpline
210
0.0
220
0.0
230
1.0
 70
     8
 71
     3
 72
    14
 73
    10
 74
     0
 42
0.000000001
 43
0.00000001
 40
0.0
 40
0.0
 40
0.0
 40
0.0
 40
0.1486649236511818
 40
0.3021955485461975
 40
0.4617228394955769
 40
0.6231072223590426
 40
0.7860588585871108
 40
0.9528571787836767
 40
1.0
 40
1.0
 40
1.0
 40
1.0
 10
10162.78340055255
 20
5006.351175467745
 30
0.0
 10
10162.3109020605
 20
5006.457367463797
 30
0.0
 10
10161.350440524
 20
5006.673227047283
 30
0.0
 10
10159.83483902343
 20
5006.700319597713
 30
0.0
 10
10158.30100461385
 20
5006.480237807094
 30
0.0
 10
10156.79540544153
 20
5005.998763860221
 30
0.0
 10
10155.3793285417
 20
5005.259928387442
 30
0.0
 10
10154.35471306597
 20
5004.567027947526
 30
0.0
 10
10153.87110623171
 20
5004.066098412311
 30
0.0
 10
10153.76454145236
 20
5003.955716503696
 30
0.0
  0
SPLINE
  5
115
330
1F
100
AcDbEntity
  8
0
  6
Continuous
 62
     7
370
    15
100
AcDbSpline
210
0.0
220
0.0
230
1.0
 70
     8
 71
     3
 72
    11
 73
     7
 74
     0
 42
0.000000001
 43
0.00000001
 40
0.0
 40
0.0
 40
0.0
 40
0.0
 40
0.1841009232766145
 40
0.4995720853629364
 40
0.8056069824613964
 40
1.0
 40
1.0
 40
1.0
 40
1.0
 10
10222.80997464037
 20
5058.780014139751
 30
0.0
 10
10222.59956452982
 20
5058.973144856546
 30
0.0
 10
10222.02860043123
 20
5059.497219984577
 30
0.0
 10
10220.96143989138
 20
5060.15708979473
 30
0.0
 10
10219.8176474758
 20
5060.701257314572
 30
0.0
 10
10219.07523860979
 20
5060.925246775233
 30
0.0
 10
10218.78684722416
 20
5061.012256284257
 30
0.0
  0
SPLINE
  5
116
330
1F
100
AcDbEntity
  8
0
  6
Continuous
 62
     7
370
    15
100
AcDbSpline
210
0.0
220
0.0
230
1.0
 70
     8
 71
     3
 72
    14
 73
    10
 74
     0
 42
0.000000001
 43
0.00000001
 40
0.0
 40
0.0
 40
0.0
 40
0.0
 40
0.1486649236511733
 40
0.3021955485460777
 40
0.4617228394954378
 40
0.6231072223589115
 40
0.7860588585869847
 40
0.9528571787835406
 40
1.0
 40
1.0
 40
1.0
 40
1.0
 10
10218.78684722416
 20
5061.012256284257
 30
0.0
 10
10218.31434873211
 20
5061.11844828031
 30
0.0
 10
10217.35388719561
 20
5061.334307863794
 30
0.0
 10
10215.83828569504
 20
5061.361400414225
 30
0.0
 10
10214.30445128546
 20
5061.141318623608
 30
0.0
 10
10212.79885211314
 20
5060.659844676733
 30
0.0
 10
10211.38277521331
 20
5059.921009203957
 30
0.0
 10
10210.35815973758
 20
5059.22810876404
 30
0.0
 10
10209.87455290331
 20
5058.727179228827
 30
0.0
 10
10209.76798812397
 20
5058.61679732021
 30
0.0
  0
SPLINE
  5
117
330
1F
100
AcDbEntity
  8
0
  6
Continuous
 62
     7
370
    15
100
AcDbSpline
210
0.0
220
0.0
230
1.0
 70
     8
 71
     3
 72
    11
 73
     7
 74
     0
 42
0.000000001
 43
0.00000001
 40
0.0
 40
0.0
 40
0.0
 40
0.0
 40
0.1841009232766145
 40
0.4995720853629364
 40
0.8056069824613964
 40
1.0
 40
1.0
 40
1.0
 40
1.0
 10
10278.81342131198
 20
5113.441094956264
 30
0.0
 10
10278.60301120143
 20
5113.634225673059
 30
0.0
 10
10278.03204710284
 20
5114.158300801089
 30
0.0
 10
10276.96488656298
 20
5114.818170611244
 30
0.0
 10
10275.82109414741
 20
5115.362338131084
 30
0.0
 10
10275.0786852814
 20
5115.586327591745
 30
0.0
 10
10274.79029389577
 20
5115.67333710077
 30
0.0
  0
SPLINE
  5
118
330
1F
100
AcDbEntity
  8
0
  6
Continuous
 62
     7
370
    15
100
AcDbSpline
210
0.0
220
0.0
230
1.0
 70
     8
 71
     3
 72
    14
 73
    10
 74
     0
 42
0.000000001
 43
0.00000001
 40
0.0
 40
0.0
 40
0.0
 40
0.0
 40
0.1486649236511733
 40
0.3021955485460777
 40
0.4617228394954378
 40
0.6231072223589115
 40
0.7860588585869847
 40
0.9528571787835406
 40
1.0
 40
1.0
 40
1.0
 40
1.0
 10
10274.79029389577
 20
5115.67333710077
 30
0.0
 10
10274.31779540372
 20
5115.779529096822
 30
0.0
 10
10273.35733386722
 20
5115.995388680309
 30
0.0
 10
10271.84173236665
 20
5116.022481230739
 30
0.0
 10
10270.30789795707
 20
5115.80239944012
 30
0.0
 10
10268.80229878475
 20
5115.320925493246
 30
0.0
 10
10267.38622188492
 20
5114.582090020469
 30
0.0
 10
10266.36160640918
 20
5113.889189580554
 30
0.0
 10
10265.87799957492
 20
5113.388260045339
 30
0.0
 10
10265.77143479558
 20
5113.277878136723
 30
0.0
  0
SPLINE
  5
119
330
1F
100
AcDbEntity
  8
0
  6
Continuous
 62
     7
370
    15
100
AcDbSpline
210
0.0
220
0.0
230
1.0
 70
     8
 71
     3
 72
    11
 73
     7
 74
     0
 42
0.000000001
 43
0.00000001
 40
0.0
 40
0.0
 40
0.0
 40
0.0
 40
0.1841009232766145
 40
0.4995720853629364
 40
0.8056069824613964
 40
1.0
 40
1.0
 40
1.0
 40
1.0
 10
10334.81686798359
 20
5168.102175772777
 30
0.0
 10
10334.60645787304
 20
5168.295306489572
 30
0.0
 10
10334.03549377445
 20
5168.819381617603
 30
0.0
 10
10332.96833323459
 20
5169.479251427756
 30
0.0
 10
10331.82454081902
 20
5170.023418947598
 30
0.0
 10
10331.08213195301
 20
5170.247408408259
 30
0.0
 10
10330.79374056738
 20
5170.334417917284
 30
0.0
  0
SPLINE
  5
11A
330
1F
100
AcDbEntity
  8
0
  6
Continuous
 62
     7
370
    15
100
AcDbSpline
210
0.0
220
0.0
230
1.0
 70
     8
 71
     3
 72
    14
 73
    10
 74
     0
 42
0.000000001
 43
0.00000001
 40
0.0
 40
0.0
 40
0.0
 40
0.0
 40
0.1486649236511733
 40
0.3021955485460777
 40
0.4617228394954378
 40
0.6231072223589115
 40
0.7860588585869847
 40
0.9528571787835406
 40
1.0
 40
1.0
 40
1.0
 40
1.0
 10
10330.79374056738
 20
5170.334417917283
 30
0.0
 10
10330.32124207532
 20
5170.440609913336
 30
0.0
 10
10329.36078053882
 20
5170.656469496821
 30
0.0
 10
10327.84517903826
 20
5170.683562047251
 30
0.0
 10
10326.31134462867
 20
5170.463480256633
 30
0.0
 10
10324.80574545636
 20
5169.982006309759
 30
0.0
 10
10323.38966855653
 20
5169.243170836982
 30
0.0
 10
10322.36505308079
 20
5168.550270397066
 30
0.0
 10
10321.88144624653
 20
5168.049340861851
 30
0.0
 10
10321.77488146719
 20
5167.938958953236
 30
0.0
  0
SPLINE
  5
11B
330
1F
100
AcDbEntity
  8
0
  6
Continuous
 62
     7
370
    15
100
AcDbSpline
210
0.0
220
0.0
230
1.0
 70
     8
 71
     3
 72
    11
 73
     7
 74
     0
 42
0.000000001
 43
0.00000001
 40
0.0
 40
0.0
 40
0.0
 40
0.0
 40
0.1841009232774575
 40
0.4995720853639392
 40
0.8056069824616733
 40
1.0
 40
1.0
 40
1.0
 40
1.0
 10
10390.8203146552
 20
5222.76325658929
 30
0.0
 10
10390.60990454464
 20
5222.956387306085
 30
0.0
 10
10390.03894044605
 20
5223.480462434117
 30
0.0
 10
10388.97177990619
 20
5224.14033224427
 30
0.0
 10
10387.82798749062
 20
5224.684499764111
 30
0.0
 10
10387.08557862462
 20
5224.908489224771
 30
0.0
 10
10386.79718723899
 20
5224.995498733796
 30
0.0
  0
SPLINE
  5
11C
330
1F
100
AcDbEntity
  8
0
  6
Continuous
 62
     7
370
    15
100
AcDbSpline
210
0.0
220
0.0
230
1.0
 70
     8
 71
     3
 72
    14
 73
    10
 74
     0
 42
0.000000001
 43
0.00000001
 40
0.0
 40
0.0
 40
0.0
 40
0.0
 40
0.1486649236511781
 40
0.302195548546193
 40
0.4617228394955752
 40
0.6231072223590125
 40
0.7860588585870811
 40
0.952857178783652
 40
0.9999999999999999
 40
0.9999999999999999
 40
0.9999999999999999
 40
0.9999999999999999
 10
10386.79718723899
 20
5224.995498733796
 30
0.0
 10
10386.32468874693
 20
5225.101690729848
 30
0.0
 10
10385.36422721043
 20
5225.317550313334
 30
0.0
 10
10383.84862570986
 20
5225.344642863764
 30
0.0
 10
10382.31479130028
 20
5225.124561073146
 30
0.0
 10
10380.80919212796
 20
5224.643087126272
 30
0.0
 10
10379.39311522813
 20
5223.904251653493
 30
0.0
 10
10378.3684997524
 20
5223.211351213579
 30
0.0
 10
10377.88489291813
 20
5222.710421678364
 30
0.0
 10
10377.77832813879
 20
5222.600039769747
 30
0.0
  0
SPLINE
  5
11D
330
1F
100
AcDbEntity
  8
0
  6
Continuous
 62
     7
370
    15
100
AcDbSpline
210
0.0
220
0.0
230
1.0
 70
     8
 71
     3
 72
    11
 73
     7
 74
     0
 42
0.000000001
 43
0.00000001
 40
0.0
 40
0.0
 40
0.0
 40
0.0
 40
0.1841009232774575
 40
0.4995720853639392
 40
0.8056069824616733
 40
1.0
 40
1.0
 40
1.0
 40
1.0
 10
10446.8237613268
 20
5277.424337405802
 30
0.0
 10
10446.61335121625
 20
5277.617468122598
 30
0.0
 10
10446.04238711766
 20
5278.14154325063
 30
0.0
 10
10444.9752265778
 20
5278.801413060783
 30
0.0
 10
10443.83143416223
 20
5279.345580580623
 30
0.0
 10
10443.08902529623
 20
5279.569570041284
 30
0.0
 10
10442.80063391059
 20
5279.656579550308
 30
0.0
  0
SPLINE
  5
11E
330
1F
100
AcDbEntity
  8
0
  6
Continuous
 62
     7
370
    15
100
AcDbSpline
210
0.0
220
0.0
230
1.0
 70
     8
 71
     3
 72
    14
 73
    10
 74
     0
 42
0.000000001
 43
0.00000001
 40
0.0
 40
0.0
 40
0.0
 40
0.0
 40
0.1486649236511781
 40
0.302195548546193
 40
0.4617228394955752
 40
0.6231072223590125
 40
0.7860588585870811
 40
0.952857178783652
 40
0.9999999999999999
 40
0.9999999999999999
 40
0.9999999999999999
 40
0.9999999999999999
 10
10442.80063391059
 20
5279.656579550308
 30
0.0
 10
10442.32813541854
 20
5279.762771546361
 30
0.0
 10
10441.36767388204
 20
5279.978631129847
 30
0.0
 10
10439.85207238147
 20
5280.005723680276
 30
0.0
 10
10438.31823797189
 20
5279.785641889658
 30
0.0
 10
10436.81263879957
 20
5279.304167942784
 30
0.0
 10
10435.39656189974
 20
5278.565332470005
 30
0.0
 10
10434.37194642401
 20
5277.872432030091
 30
0.0
 10
10433.88833958974
 20
5277.371502494876
 30
0.0
 10
10433.7817748104
 20
5277.26112058626
 30
0.0
  0
SPLINE
  5
11F
330
1F
100
AcDbEntity
  8
0
  6
Continuous
 62
     7
370
    15
100
AcDbSpline
210
0.0
220
0.0
230
1.0
 70
     8
 71
     3
 72
    11
 73
     7
 74
     0
 42
0.000000001
 43
0.00000001
 40
0.0
 40
0.0
 40
0.0
 40
0.0
 40
0.1841009232774575
 40
0.4995720853639392
 40
0.8056069824616733
 40
1.0
 40
1.0
 40
1.0
 40
1.0
 10
10502.82720799841
 20
5332.085418222315
 30
0.0
 10
10502.61679788786
 20
5332.278548939111
 30
0.0
 10
10502.04583378927
 20
5332.802624067142
 30
0.0
 10
10500.97867324941
 20
5333.462493877296
 30
0.0
 10
10499.83488083384
 20
5334.006661397137
 30
0.0
 10
10499.09247196783
 20
5334.230650857797
 30
0.0
 10
10498.8040805822
 20
5334.317660366821
 30
0.0
  0
SPLINE
  5
120
330
1F
100
AcDbEntity
  8
0
  6
Continuous
 62
     7
370
    15
100
AcDbSpline
210
0.0
220
0.0
230
1.0
 70
     8
 71
     3
 72
    14
 73
    10
 74
     0
 42
0.000000001
 43
0.00000001
 40
0.0
 40
0.0
 40
0.0
 40
0.0
 40
0.148664923651174
 40
0.3021955485461847
 40
0.4617228394955627
 40
0.6231072223589955
 40
0.7860588585870598
 40
0.9528571787836261
 40
1.0
 40
1.0
 40
1.0
 40
1.0
 10
10498.8040805822
 20
5334.317660366821
 30
0.0
 10
10498.33158209015
 20
5334.423852362874
 30
0.0
 10
10497.37112055365
 20
5334.63971194636
 30
0.0
 10
10495.85551905308
 20
5334.666804496789
 30
0.0
 10
10494.32168464349
 20
5334.44672270617
 30
0.0
 10
10492.81608547118
 20
5333.965248759298
 30
0.0
 10
10491.40000857135
 20
5333.226413286518
 30
0.0
 10
10490.37539309561
 20
5332.533512846603
 30
0.0
 10
10489.89178626135
 20
5332.032583311389
 30
0.0
 10
10489.78522148201
 20
5331.922201402773
 30
0.0
  0
SPLINE
  5
121
330
1F
100
AcDbEntity
  8
0
  6
Continuous
 62
     7
370
    15
100
AcDbSpline
210
0.0
220
0.0
230
1.0
 70
     8
 71
     3
 72
    11
 73
     7
 74
     0
 42
0.000000001
 43
0.00000001
 40
0.0
 40
0.0
 40
0.0
 40
0.0
 40
0.1841009232766145
 40
0.4995720853629364
 40
0.8056069824613964
 40
1.0
 40
1.0
 40
1.0
 40
1.0
 10
10558.83065467002
 20
5386.746499038827
 30
0.0
 10
10558.62024455947
 20
5386.939629755622
 30
0.0
 10
10558.04928046087
 20
5387.463704883654
 30
0.0
 10
10556.98211992102
 20
5388.123574693807
 30
0.0
 10
10555.83832750545
 20
5388.667742213648
 30
0.0
 10
10555.09591863944
 20
5388.89173167431
 30
0.0
 10
10554.80752725381
 20
5388.978741183334
 30
0.0
  0
SPLINE
  5
122
330
1F
100
AcDbEntity
  8
0
  6
Continuous
 62
     7
370
    15
100
AcDbSpline
210
0.0
220
0.0
230
1.0
 70
     8
 71
     3
 72
    14
 73
    10
 74
     0
 42
0.000000001
 43
0.00000001
 40
0.0
 40
0.0
 40
0.0
 40
0.0
 40
0.1486649236511733
 40
0.3021955485460777
 40
0.4617228394954378
 40
0.6231072223589115
 40
0.7860588585869847
 40
0.9528571787835406
 40
1.0
 40
1.0
 40
1.0
 40
1.0
 10
10554.80752725381
 20
5388.978741183334
 30
0.0
 10
10554.33502876175
 20
5389.084933179386
 30
0.0
 10
10553.37456722525
 20
5389.300792762871
 30
0.0
 10
10551.85896572468
 20
5389.327885313302
 30
0.0
 10
10550.3251313151
 20
5389.107803522685
 30
0.0
 10
10548.81953214279
 20
5388.62632957581
 30
0.0
 10
10547.40345524295
 20
5387.887494103033
 30
0.0
 10
10546.37883976722
 20
5387.194593663117
 30
0.0
 10
10545.89523293296
 20
5386.693664127903
 30
0.0
 10
10545.78866815362
 20
5386.583282219286
 30
0.0
  0
SPLINE
  5
123
330
1F
100
AcDbEntity
  8
0
  6
Continuous
 62
     7
370
    15
100
AcDbSpline
210
0.0
220
0.0
230
1.0
 70
     8
 71
     3
 72
    11
 73
     7
 74
     0
 42
0.000000001
 43
0.00000001
 40
0.0
 40
0.0
 40
0.0
 40
0.0
 40
0.1841009232766145
 40
0.4995720853629364
 40
0.8056069824613964
 40
1.0
 40
1.0
 40
1.0
 40
1.0
 10
10614.83410134162
 20
5441.407579855341
 30
0.0
 10
10614.62369123108
 20
5441.600710572135
 30
0.0
 10
10614.05272713248
 20
5442.124785700166
 30
0.0
 10
10612.98556659263
 20
5442.78465551032
 30
0.0
 10
10611.84177417705
 20
5443.32882303016
 30
0.0
 10
10611.09936531105
 20
5443.552812490822
 30
0.0
 10
10610.81097392542
 20
5443.639821999846
 30
0.0
  0
SPLINE
  5
124
330
1F
100
AcDbEntity
  8
0
  6
Continuous
 62
     7
370
    15
100
AcDbSpline
210
0.0
220
0.0
230
1.0
 70
     8
 71
     3
 72
    14
 73
    10
 74
     0
 42
0.000000001
 43
0.00000001
 40
0.0
 40
0.0
 40
0.0
 40
0.0
 40
0.1486649236511774
 40
0.3021955485460859
 40
0.4617228394954505
 40
0.6231072223589286
 40
0.7860588585870062
 40
0.9528571787835666
 40
1.0
 40
1.0
 40
1.0
 40
1.0
 10
10610.81097392542
 20
5443.639821999846
 30
0.0
 10
10610.33847543336
 20
5443.746013995899
 30
0.0
 10
10609.37801389686
 20
5443.961873579386
 30
0.0
 10
10607.86241239629
 20
5443.988966129816
 30
0.0
 10
10606.32857798671
 20
5443.768884339197
 30
0.0
 10
10604.82297881439
 20
5443.287410392323
 30
0.0
 10
10603.40690191456
 20
5442.548574919545
 30
0.0
 10
10602.38228643883
 20
5441.85567447963
 30
0.0
 10
10601.89867960456
 20
5441.354744944416
 30
0.0
 10
10601.79211482522
 20
5441.244363035799
 30
0.0
  0
LINE
  5
125
330
1F
100
AcDbEntity
  8
0
  6
Continuous
 62
     7
370
    15
100
AcDbLine
 10
10651.1401485622
 20
5497.721642778
 30
0.0
 11
9251.0539817721
 21
4131.1946223652
 31
0.0
  0
LINE
  5
126
330
1F
100
AcDbEntity
  8
0
  6
Continuous
 62
     7
370
    15
100
AcDbLine
 10
10677.6726922126
 20
5490.5106659375
 30
0.0
 11
10651.1401485622
 21
5497.721642778
 31
0.0
  0
LINE
  5
127
330
1F
100
AcDbEntity
  8
0
  6
Continuous
 62
     7
370
    15
100
AcDbLine
 10
10677.6726922126
 20
5490.5106659375
 30
0.0
 11
9277.5865254224
 21
4123.9836455247
 31
0.0
  0
LINE
  5
128
330
1F
100
AcDbEntity
  8
0
  6
Continuous
 62
     7
370
    15
100
AcDbLine
 10
9277.5865254224
 20
4123.9836455247
 30
0.0
 11
9251.0539817721
 21
4131.1946223652
 31
0.0
  0
LWPOLYLINE
  5
129
330
1F
100
AcDbEntity
  8
0
  6
Continuous
 62
     7
370
    15
100
AcDbPolyline
 90
       21
 70
   128
 43
0.0
 10
9313.6905643562
 20
4184.0529589716
 10
9313.0932005388
 20
4183.2764045259
 10
9312.8339268525
 20
4182.4518665874
 10
9312.924866647
 20
4181.6178996336
 10
9313.3617676783
 20
4180.8134990324
 10
9314.12420094
 20
4180.0762776619
 10
9315.1765159001
 20
4179.440707174
 10
9316.4695074805
 20
4178.9365061384
 10
9317.9427168321
 20
4178.5872504351
 10
9319.5272583229
 20
4178.4092708726
 10
9321.149040554
 20
4178.4108895774
 10
9322.7322307906
 20
4178.5920308607
 10
9324.2028008168
 20
4178.9442247574
 10
9325.4919884128
 20
4179.4510030724
 10
9326.5395125993
 20
4180.0886694149
 10
9327.2963923096
 20
4180.8274072154
 10
9327.7272366897
 20
4181.6326739154
 10
9327.8118999352
 20
4182.466816139
 10
9327.5464232868
 20
4183.2908303229
 10
9326.9432201376
 20
4184.0661864798
 10
9326.8197457443
 20
4184.180844667
  0
LWPOLYLINE
  5
12A
330
1F
100
AcDbEntity
  8
0
  6
Continuous
 62
     7
370
    15
100
AcDbPolyline
 90
       21
 70
   128
 43
0.0
 10
9369.6940110279
 20
4238.7140397881
 10
9369.0966472104
 20
4237.9374853424
 10
9368.8373735241
 20
4237.1129474039
 10
9368.9283133186
 20
4236.2789804501
 10
9369.3652143499
 20
4235.4745798489
 10
9370.1276476116
 20
4234.7373584784
 10
9371.1799625717
 20
4234.1017879906
 10
9372.4729541521
 20
4233.5975869549
 10
9373.9461635037
 20
4233.2483312516
 10
9375.5307049945
 20
4233.0703516891
 10
9377.1524872256
 20
4233.0719703939
 10
9378.7356774622
 20
4233.2531116772
 10
9380.2062474885
 20
4233.6053055739
 10
9381.4954350844
 20
4234.1120838889
 10
9382.5429592709
 20
4234.7497502314
 10
9383.2998389813
 20
4235.4884880319
 10
9383.7306833613
 20
4236.2937547319
 10
9383.8153466068
 20
4237.1278969555
 10
9383.5498699584
 20
4237.9519111394
 10
9382.9466668092
 20
4238.7272672963
 10
9382.8231924159
 20
4238.8419254835
  0
LWPOLYLINE
  5
12B
330
1F
100
AcDbEntity
  8
0
  6
Continuous
 62
     7
370
    15
100
AcDbPolyline
 90
       21
 70
   128
 43
0.0
 10
9425.6974576995
 20
4293.3751206046
 10
9425.100093882
 20
4292.5985661589
 10
9424.8408201957
 20
4291.7740282204
 10
9424.9317599902
 20
4290.9400612666
 10
9425.3686610216
 20
4290.1356606654
 10
9426.1310942832
 20
4289.3984392949
 10
9427.1834092433
 20
4288.7628688071
 10
9428.4764008237
 20
4288.2586677714
 10
9429.9496101753
 20
4287.9094120681
 10
9431.5341516661
 20
4287.7314325056
 10
9433.1559338972
 20
4287.7330512104
 10
9434.7391241338
 20
4287.9141924937
 10
9436.2096941601
 20
4288.2663863905
 10
9437.498881756
 20
4288.7731647054
 10
9438.5464059426
 20
4289.4108310479
 10
9439.3032856529
 20
4290.1495688484
 10
9439.7341300329
 20
4290.9548355484
 10
9439.8187932784
 20
4291.788977772
 10
9439.55331663
 20
4292.612991956
 10
9438.9501134808
 20
4293.3883481128
 10
9438.8266390875
 20
4293.5030063001
  0
LWPOLYLINE
  5
12C
330
1F
100
AcDbEntity
  8
0
  6
Continuous
 62
     7
370
    15
100
AcDbPolyline
 90
       21
 70
   128
 43
0.0
 10
9481.7009043711
 20
4348.0362014211
 10
9481.1035405536
 20
4347.2596469754
 10
9480.8442668674
 20
4346.4351090369
 10
9480.9352066618
 20
4345.6011420831
 10
9481.3721076932
 20
4344.7967414819
 10
9482.1345409548
 20
4344.0595201115
 10
9483.1868559149
 20
4343.4239496236
 10
9484.4798474953
 20
4342.919748588
 10
9485.9530568469
 20
4342.5704928846
 10
9487.5375983377
 20
4342.3925133221
 10
9489.1593805688
 20
4342.3941320269
 10
9490.7425708054
 20
4342.5752733102
 10
9492.2131408317
 20
4342.927467207
 10
9493.5023284277
 20
4343.434245522
 10
9494.5498526142
 20
4344.0719118644
 10
9495.3067323245
 20
4344.8106496649
 10
9495.7375767045
 20
4345.6159163649
 10
9495.82223995
 20
4346.4500585885
 10
9495.5567633016
 20
4347.2740727725
 10
9494.9535601524
 20
4348.0494289293
 10
9494.8300857591
 20
4348.1640871166
  0
LWPOLYLINE
  5
12D
330
1F
100
AcDbEntity
  8
0
  6
Continuous
 62
     7
370
    15
100
AcDbPolyline
 90
       21
 70
   128
 43
0.0
 10
9537.7043510427
 20
4402.6972822376
 10
9537.1069872252
 20
4401.920727792
 10
9536.847713539
 20
4401.0961898534
 10
9536.9386533334
 20
4400.2622228996
 10
9537.3755543648
 20
4399.4578222984
 10
9538.1379876264
 20
4398.720600928
 10
9539.1903025865
 20
4398.0850304401
 10
9540.4832941669
 20
4397.5808294045
 10
9541.9565035185
 20
4397.2315737011
 10
9543.5410450093
 20
4397.0535941386
 10
9545.1628272404
 20
4397.0552128434
 10
9546.746017477
 20
4397.2363541267
 10
9548.2165875033
 20
4397.5885480235
 10
9549.5057750993
 20
4398.0953263385
 10
9550.5532992858
 20
4398.7329926809
 10
9551.3101789961
 20
4399.4717304814
 10
9551.7410233761
 20
4400.2769971814
 10
9551.8256866216
 20
4401.111139405
 10
9551.5602099732
 20
4401.935153589
 10
9550.957006824
 20
4402.7105097458
 10
9550.8335324308
 20
4402.8251679331
  0
LWPOLYLINE
  5
12E
330
1F
100
AcDbEntity
  8
0
  6
Continuous
 62
     7
370
    15
100
AcDbPolyline
 90
       21
 70
   128
 43
0.0
 10
9593.7077977143
 20
4457.3583630541
 10
9593.1104338968
 20
4456.5818086085
 10
9592.8511602106
 20
4455.7572706699
 10
9592.942100005
 20
4454.9233037161
 10
9593.3790010364
 20
4454.118903115
 10
9594.1414342981
 20
4453.3816817445
 10
9595.1937492581
 20
4452.7461112566
 10
9596.4867408385
 20
4452.241910221
 10
9597.9599501901
 20
4451.8926545176
 10
9599.544491681
 20
4451.7146749551
 10
9601.166273912
 20
4451.7162936599
 10
9602.7494641486
 20
4451.8974349433
 10
9604.2200341749
 20
4452.24962884
 10
9605.5092217709
 20
4452.756407155
 10
9606.5567459574
 20
4453.3940734974
 10
9607.3136256677
 20
4454.1328112979
 10
9607.7444700478
 20
4454.9380779979
 10
9607.8291332932
 20
4455.7722202215
 10
9607.5636566448
 20
4456.5962344055
 10
9606.9604534956
 20
4457.3715905623
 10
9606.8369791024
 20
4457.4862487496
  0
LWPOLYLINE
  5
12F
330
1F
100
AcDbEntity
  8
0
  6
Continuous
 62
     7
370
    15
100
AcDbPolyline
 90
       21
 70
   128
 43
0.0
 10
9649.7112443859
 20
4512.0194438707
 10
9649.1138805684
 20
4511.242889425
 10
9648.8546068822
 20
4510.4183514865
 10
9648.9455466766
 20
4509.5843845327
 10
9649.382447708
 20
4508.7799839315
 10
9650.1448809697
 20
4508.042762561
 10
9651.1971959297
 20
4507.4071920731
 10
9652.4901875101
 20
4506.9029910375
 10
9653.9633968617
 20
4506.5537353342
 10
9655.5479383526
 20
4506.3757557716
 10
9657.1697205836
 20
4506.3773744764
 10
9658.7529108202
 20
4506.5585157598
 10
9660.2234808465
 20
4506.9107096565
 10
9661.5126684425
 20
4507.4174879715
 10
9662.560192629
 20
4508.055154314
 10
9663.3170723393
 20
4508.7938921144
 10
9663.7479167194
 20
4509.5991588144
 10
9663.8325799648
 20
4510.4333010381
 10
9663.5671033164
 20
4511.257315222
 10
9662.9639001672
 20
4512.0326713788
 10
9662.840425774
 20
4512.1473295661
  0
LWPOLYLINE
  5
130
330
1F
100
AcDbEntity
  8
0
  6
Continuous
 62
     7
370
    15
100
AcDbPolyline
 90
       21
 70
   128
 43
0.0
 10
9705.7146910575
 20
4566.6805246872
 10
9705.11732724
 20
4565.9039702415
 10
9704.8580535538
 20
4565.079432303
 10
9704.9489933482
 20
4564.2454653492
 10
9705.3858943796
 20
4563.441064748
 10
9706.1483276413
 20
4562.7038433775
 10
9707.2006426013
 20
4562.0682728896
 10
9708.4936341817
 20
4561.564071854
 10
9709.9668435333
 20
4561.2148161507
 10
9711.5513850242
 20
4561.0368365881
 10
9713.1731672552
 20
4561.038455293
 10
9714.7563574918
 20
4561.2195965763
 10
9716.2269275181
 20
4561.571790473
 10
9717.5161151141
 20
4562.078568788
 10
9718.5636393006
 20
4562.7162351305
 10
9719.3205190109
 20
4563.454972931
 10
9719.751363391
 20
4564.260239631
 10
9719.8360266364
 20
4565.0943818546
 10
9719.5705499881
 20
4565.9183960385
 10
9718.9673468388
 20
4566.6937521954
 10
9718.8438724456
 20
4566.8084103826
  0
LWPOLYLINE
  5
131
330
1F
100
AcDbEntity
  8
0
  6
Continuous
 62
     7
370
    15
100
AcDbPolyline
 90
       21
 70
   128
 43
0.0
 10
9761.7181377291
 20
4621.3416055037
 10
9761.1207739116
 20
4620.565051058
 10
9760.8615002254
 20
4619.7405131195
 10
9760.9524400198
 20
4618.9065461657
 10
9761.3893410512
 20
4618.1021455645
 10
9762.1517743129
 20
4617.364924194
 10
9763.2040892729
 20
4616.7293537061
 10
9764.4970808534
 20
4616.2251526705
 10
9765.970290205
 20
4615.8758969672
 10
9767.5548316958
 20
4615.6979174047
 10
9769.1766139268
 20
4615.6995361095
 10
9770.7598041634
 20
4615.8806773928
 10
9772.2303741897
 20
4616.2328712895
 10
9773.5195617857
 20
4616.7396496045
 10
9774.5670859722
 20
4617.377315947
 10
9775.3239656825
 20
4618.1160537475
 10
9775.7548100626
 20
4618.9213204475
 10
9775.8394733081
 20
4619.7554626711
 10
9775.5739966597
 20
4620.579476855
 10
9774.9707935104
 20
4621.3548330119
 10
9774.8473191172
 20
4621.4694911991
  0
LWPOLYLINE
  5
132
330
1F
100
AcDbEntity
  8
0
  6
Continuous
 62
     7
370
    15
100
AcDbPolyline
 90
       21
 70
   128
 43
0.0
 10
9817.7215844007
 20
4676.0026863202
 10
9817.1242205832
 20
4675.2261318745
 10
9816.864946897
 20
4674.401593936
 10
9816.9558866914
 20
4673.5676269822
 10
9817.3927877228
 20
4672.763226381
 10
9818.1552209845
 20
4672.0260050105
 10
9819.2075359445
 20
4671.3904345227
 10
9820.500527525
 20
4670.886233487
 10
9821.9737368766
 20
4670.5369777837
 10
9823.5582783674
 20
4670.3589982212
 10
9825.1800605984
 20
4670.360616926
 10
9826.763250835
 20
4670.5417582093
 10
9828.2338208613
 20
4670.893952106
 10
9829.5230084573
 20
4671.400730421
 10
9830.5705326438
 20
4672.0383967635
 10
9831.3274123541
 20
4672.777134564
 10
9831.7582567342
 20
4673.582401264
 10
9831.8429199797
 20
4674.4165434876
 10
9831.5774433313
 20
4675.2405576715
 10
9830.974240182
 20
4676.0159138284
 10
9830.8507657888
 20
4676.1305720156
  0
LWPOLYLINE
  5
133
330
1F
100
AcDbEntity
  8
0
  6
Continuous
 62
     7
370
    15
100
AcDbPolyline
 90
       21
 70
   128
 43
0.0
 10
9873.7250310723
 20
4730.6637671367
 10
9873.1276672548
 20
4729.887212691
 10
9872.8683935686
 20
4729.0626747525
 10
9872.959333363
 20
4728.2287077987
 10
9873.3962343944
 20
4727.4243071975
 10
9874.1586676561
 20
4726.687085827
 10
9875.2109826161
 20
4726.0515153392
 10
9876.5039741966
 20
4725.5473143035
 10
9877.9771835482
 20
4725.1980586002
 10
9879.561725039
 20
4725.0200790377
 10
9881.18350727
 20
4725.0216977425
 10
9882.7666975066
 20
4725.2028390258
 10
9884.2372675329
 20
4725.5550329226
 10
9885.5264551289
 20
4726.0618112375
 10
9886.5739793154
 20
4726.69947758
 10
9887.3308590257
 20
4727.4382153805
 10
9887.7617034058
 20
4728.2434820805
 10
9887.8463666513
 20
4729.0776243041
 10
9887.5808900029
 20
4729.9016384881
 10
9886.9776868536
 20
4730.6769946449
 10
9886.8542124604
 20
4730.7916528322
  0
LWPOLYLINE
  5
134
330
1F
100
AcDbEntity
  8
0
  6
Continuous
 62
     7
370
    15
100
AcDbPolyline
 90
       21
 70
   128
 43
0.0
 10
9929.7284777439
 20
4785.3248479532
 10
9929.1311139264
 20
4784.5482935075
 10
9928.8718402402
 20
4783.723755569
 10
9928.9627800346
 20
4782.8897886152
 10
9929.399681066
 20
4782.085388014
 10
9930.1621143277
 20
4781.3481666436
 10
9931.2144292877
 20
4780.7125961557
 10
9932.5074208682
 20
4780.2083951201
 10
9933.9806302198
 20
4779.8591394167
 10
9935.5651717106
 20
4779.6811598542
 10
9937.1869539416
 20
4779.682778559
 10
9938.7701441782
 20
4779.8639198423
 10
9940.2407142045
 20
4780.2161137391
 10
9941.5299018005
 20
4780.7228920541
 10
9942.577425987
 20
4781.3605583965
 10
9943.3343056973
 20
4782.099296197
 10
9943.7651500774
 20
4782.904562897
 10
9943.8498133229
 20
4783.7387051206
 10
9943.5843366745
 20
4784.5627193046
 10
9942.9811335253
 20
4785.3380754614
 10
9942.857659132
 20
4785.4527336487
  0
LWPOLYLINE
  5
135
330
1F
100
AcDbEntity
  8
0
  6
Continuous
 62
     7
370
    15
100
AcDbPolyline
 90
       21
 70
   128
 43
0.0
 10
9985.7319244155
 20
4839.9859287697
 10
9985.1345605981
 20
4839.2093743241
 10
9984.8752869118
 20
4838.3848363855
 10
9984.9662267063
 20
4837.5508694317
 10
9985.4031277376
 20
4836.7464688306
 10
9986.1655609993
 20
4836.0092474601
 10
9987.2178759593
 20
4835.3736769722
 10
9988.5108675398
 20
4834.8694759366
 10
9989.9840768914
 20
4834.5202202332
 10
9991.5686183822
 20
4834.3422406707
 10
9993.1904006132
 20
4834.3438593755
 10
9994.7735908498
 20
4834.5250006588
 10
9996.2441608761
 20
4834.8771945556
 10
9997.5333484721
 20
4835.3839728706
 10
9998.5808726586
 20
4836.021639213
 10
9999.3377523689
 20
4836.7603770135
 10
9999.768596749
 20
4837.5656437135
 10
9999.8532599945
 20
4838.3997859371
 10
9999.5877833461
 20
4839.2238001211
 10
9998.9845801969
 20
4839.9991562779
 10
9998.8611058036
 20
4840.1138144652
  0
LWPOLYLINE
  5
136
330
1F
100
AcDbEntity
  8
0
  6
Continuous
 62
     7
370
    15
100
AcDbPolyline
 90
       21
 70
   128
 43
0.0
 10
10041.7353710871
 20
4894.6470095862
 10
10041.1380072697
 20
4893.8704551406
 10
10040.8787335834
 20
4893.045917202
 10
10040.9696733779
 20
4892.2119502482
 10
10041.4065744092
 20
4891.4075496471
 10
10042.1690076709
 20
4890.6703282766
 10
10043.221322631
 20
4890.0347577887
 10
10044.5143142114
 20
4889.5305567531
 10
10045.987523563
 20
4889.1813010497
 10
10047.5720650538
 20
4889.0033214872
 10
10049.1938472848
 20
4889.004940192
 10
10050.7770375214
 20
4889.1860814754
 10
10052.2476075477
 20
4889.5382753721
 10
10053.5367951437
 20
4890.0450536871
 10
10054.5843193302
 20
4890.6827200295
 10
10055.3411990405
 20
4891.42145783
 10
10055.7720434206
 20
4892.22672453
 10
10055.8567066661
 20
4893.0608667537
 10
10055.5912300177
 20
4893.8848809376
 10
10054.9880268685
 20
4894.6602370944
 10
10054.8645524752
 20
4894.7748952817
  0
LWPOLYLINE
  5
137
330
1F
100
AcDbEntity
  8
0
  6
Continuous
 62
     7
370
    15
100
AcDbPolyline
 90
       21
 70
   128
 43
0.0
 10
10097.7388177588
 20
4949.3080904028
 10
10097.1414539413
 20
4948.5315359571
 10
10096.882180255
 20
4947.7069980186
 10
10096.9731200495
 20
4946.8730310648
 10
10097.4100210808
 20
4946.0686304636
 10
10098.1724543425
 20
4945.3314090931
 10
10099.2247693026
 20
4944.6958386052
 10
10100.517760883
 20
4944.1916375696
 10
10101.9909702346
 20
4943.8423818663
 10
10103.5755117254
 20
4943.6644023037
 10
10105.1972939565
 20
4943.6660210086
 10
10106.7804841931
 20
4943.8471622919
 10
10108.2510542194
 20
4944.1993561886
 10
10109.5402418153
 20
4944.7061345036
 10
10110.5877660018
 20
4945.3438008461
 10
10111.3446457121
 20
4946.0825386465
 10
10111.7754900922
 20
4946.8878053465
 10
10111.8601533377
 20
4947.7219475702
 10
10111.5946766893
 20
4948.5459617541
 10
10110.9914735401
 20
4949.3213179109
 10
10110.8679991468
 20
4949.4359760982
  0
LWPOLYLINE
  5
138
330
1F
100
AcDbEntity
  8
0
  6
Continuous
 62
     7
370
    15
100
AcDbPolyline
 90
       21
 70
   128
 43
0.0
 10
10153.7422644304
 20
5003.9691712193
 10
10153.1449006129
 20
5003.1926167736
 10
10152.8856269266
 20
5002.3680788351
 10
10152.9765667211
 20
5001.5341118813
 10
10153.4134677525
 20
5000.7297112801
 10
10154.1759010141
 20
4999.9924899096
 10
10155.2282159742
 20
4999.3569194217
 10
10156.5212075546
 20
4998.8527183861
 10
10157.9944169062
 20
4998.5034626828
 10
10159.578958397
 20
4998.3254831202
 10
10161.2007406281
 20
4998.3271018251
 10
10162.7839308647
 20
4998.5082431084
 10
10164.254500891
 20
4998.8604370051
 10
10165.5436884869
 20
4999.3672153201
 10
10166.5912126734
 20
5000.0048816626
 10
10167.3480923838
 20
5000.7436194631
 10
10167.7789367638
 20
5001.5488861631
 10
10167.8636000093
 20
5002.3830283867
 10
10167.5981233609
 20
5003.2070425706
 10
10166.9949202117
 20
5003.9823987275
 10
10166.8714458184
 20
5004.0970569147
  0
LWPOLYLINE
  5
139
330
1F
100
AcDbEntity
  8
0
  6
Continuous
 62
     7
370
    15
100
AcDbPolyline
 90
       21
 70
   128
 43
0.0
 10
10209.745711102
 20
5058.6302520358
 10
10209.1483472845
 20
5057.8536975901
 10
10208.8890735983
 20
5057.0291596516
 10
10208.9800133927
 20
5056.1951926978
 10
10209.4169144241
 20
5055.3907920966
 10
10210.1793476857
 20
5054.6535707261
 10
10211.2316626458
 20
5054.0180002382
 10
10212.5246542262
 20
5053.5137992026
 10
10213.9978635778
 20
5053.1645434993
 10
10215.5824050686
 20
5052.9865639368
 10
10217.2041872997
 20
5052.9881826416
 10
10218.7873775363
 20
5053.1693239249
 10
10220.2579475626
 20
5053.5215178216
 10
10221.5471351585
 20
5054.0282961366
 10
10222.5946593451
 20
5054.6659624791
 10
10223.3515390554
 20
5055.4047002796
 10
10223.7823834354
 20
5056.2099669796
 10
10223.8670466809
 20
5057.0441092032
 10
10223.6015700325
 20
5057.8681233871
 10
10222.9983668833
 20
5058.643479544
 10
10222.87489249
 20
5058.7581377312
  0
LWPOLYLINE
  5
13A
330
1F
100
AcDbEntity
  8
0
  6
Continuous
 62
     7
370
    15
100
AcDbPolyline
 90
       21
 70
   128
 43
0.0
 10
10265.7491577736
 20
5113.2913328523
 10
10265.1517939561
 20
5112.5147784066
 10
10264.8925202699
 20
5111.6902404681
 10
10264.9834600643
 20
5110.8562735143
 10
10265.4203610957
 20
5110.0518729131
 10
10266.1827943573
 20
5109.3146515426
 10
10267.2351093174
 20
5108.6790810548
 10
10268.5281008978
 20
5108.1748800191
 10
10270.0013102494
 20
5107.8256243158
 10
10271.5858517402
 20
5107.6476447533
 10
10273.2076339713
 20
5107.6492634581
 10
10274.7908242079
 20
5107.8304047414
 10
10276.2613942342
 20
5108.1825986382
 10
10277.5505818302
 20
5108.6893769531
 10
10278.5981060167
 20
5109.3270432956
 10
10279.354985727
 20
5110.0657810961
 10
10279.785830107
 20
5110.8710477961
 10
10279.8704933525
 20
5111.7051900197
 10
10279.6050167041
 20
5112.5292042036
 10
10279.0018135549
 20
5113.3045603605
 10
10278.8783391617
 20
5113.4192185477
  0
LWPOLYLINE
  5
13B
330
1F
100
AcDbEntity
  8
0
  6
Continuous
 62
     7
370
    15
100
AcDbPolyline
 90
       21
 70
   128
 43
0.0
 10
10321.7526044452
 20
5167.9524136688
 10
10321.1552406277
 20
5167.1758592231
 10
10320.8959669415
 20
5166.3513212846
 10
10320.9869067359
 20
5165.5173543308
 10
10321.4238077673
 20
5164.7129537296
 10
10322.1862410289
 20
5163.9757323591
 10
10323.238555989
 20
5163.3401618713
 10
10324.5315475694
 20
5162.8359608356
 10
10326.004756921
 20
5162.4867051323
 10
10327.5892984119
 20
5162.3087255698
 10
10329.2110806429
 20
5162.3103442746
 10
10330.7942708795
 20
5162.4914855579
 10
10332.2648409058
 20
5162.8436794547
 10
10333.5540285018
 20
5163.3504577696
 10
10334.6015526883
 20
5163.9881241121
 10
10335.3584323986
 20
5164.7268619126
 10
10335.7892767787
 20
5165.5321286126
 10
10335.8739400241
 20
5166.3662708362
 10
10335.6084633757
 20
5167.1902850202
 10
10335.0052602265
 20
5167.965641177
 10
10334.8817858333
 20
5168.0802993643
  0
LWPOLYLINE
  5
13C
330
1F
100
AcDbEntity
  8
0
  6
Continuous
 62
     7
370
    15
100
AcDbPolyline
 90
       21
 70
   128
 43
0.0
 10
10377.7560511168
 20
5222.6134944853
 10
10377.1586872993
 20
5221.8369400396
 10
10376.8994136131
 20
5221.0124021011
 10
10376.9903534075
 20
5220.1784351473
 10
10377.4272544389
 20
5219.3740345461
 10
10378.1896877006
 20
5218.6368131757
 10
10379.2420026606
 20
5218.0012426878
 10
10380.534994241
 20
5217.4970416522
 10
10382.0082035926
 20
5217.1477859488
 10
10383.5927450835
 20
5216.9698063863
 10
10385.2145273145
 20
5216.9714250911
 10
10386.7977175511
 20
5217.1525663744
 10
10388.2682875774
 20
5217.5047602712
 10
10389.5574751734
 20
5218.0115385862
 10
10390.6049993599
 20
5218.6492049286
 10
10391.3618790702
 20
5219.3879427291
 10
10391.7927234503
 20
5220.1932094291
 10
10391.8773866957
 20
5221.0273516527
 10
10391.6119100473
 20
5221.8513658367
 10
10391.0087068981
 20
5222.6267219935
 10
10390.8852325049
 20
5222.7413801808
  0
LWPOLYLINE
  5
13D
330
1F
100
AcDbEntity
  8
0
  6
Continuous
 62
     7
370
    15
100
AcDbPolyline
 90
       21
 70
   128
 43
0.0
 10
10433.7594977884
 20
5277.2745753018
 10
10433.1621339709
 20
5276.4980208562
 10
10432.9028602847
 20
5275.6734829176
 10
10432.9938000791
 20
5274.8395159638
 10
10433.4307011105
 20
5274.0351153627
 10
10434.1931343722
 20
5273.2978939922
 10
10435.2454493322
 20
5272.6623235043
 10
10436.5384409126
 20
5272.1581224687
 10
10438.0116502642
 20
5271.8088667653
 10
10439.5961917551
 20
5271.6308872028
 10
10441.2179739861
 20
5271.6325059076
 10
10442.8011642227
 20
5271.8136471909
 10
10444.271734249
 20
5272.1658410877
 10
10445.560921845
 20
5272.6726194027
 10
10446.6084460315
 20
5273.3102857451
 10
10447.3653257418
 20
5274.0490235456
 10
10447.7961701219
 20
5274.8542902456
 10
10447.8808333673
 20
5275.6884324692
 10
10447.615356719
 20
5276.5124466532
 10
10447.0121535697
 20
5277.28780281
 10
10446.8886791765
 20
5277.4024609973
  0
LWPOLYLINE
  5
13E
330
1F
100
AcDbEntity
  8
0
  6
Continuous
 62
     7
370
    15
100
AcDbPolyline
 90
       21
 70
   128
 43
0.0
 10
10489.76294446
 20
5331.9356561184
 10
10489.1655806425
 20
5331.1591016727
 10
10488.9063069563
 20
5330.3345637341
 10
10488.9972467507
 20
5329.5005967803
 10
10489.4341477821
 20
5328.6961961792
 10
10490.1965810438
 20
5327.9589748087
 10
10491.2488960038
 20
5327.3234043208
 10
10492.5418875843
 20
5326.8192032852
 10
10494.0150969358
 20
5326.4699475818
 10
10495.5996384267
 20
5326.2919680193
 10
10497.2214206577
 20
5326.2935867241
 10
10498.8046108943
 20
5326.4747280075
 10
10500.2751809206
 20
5326.8269219042
 10
10501.5643685166
 20
5327.3337002192
 10
10502.6118927031
 20
5327.9713665617
 10
10503.3687724134
 20
5328.7101043621
 10
10503.7996167935
 20
5329.5153710621
 10
10503.8842800389
 20
5330.3495132858
 10
10503.6188033906
 20
5331.1735274697
 10
10503.0156002413
 20
5331.9488836265
 10
10502.8921258481
 20
5332.0635418138
  0
LWPOLYLINE
  5
13F
330
1F
100
AcDbEntity
  8
0
  6
Continuous
 62
     7
370
    15
100
AcDbPolyline
 90
       21
 70
   128
 43
0.0
 10
10545.7663911316
 20
5386.5967369349
 10
10545.1690273141
 20
5385.8201824892
 10
10544.9097536279
 20
5384.9956445507
 10
10545.0006934223
 20
5384.1616775969
 10
10545.4375944537
 20
5383.3572769957
 10
10546.2000277154
 20
5382.6200556252
 10
10547.2523426754
 20
5381.9844851373
 10
10548.5453342559
 20
5381.4802841017
 10
10550.0185436075
 20
5381.1310283984
 10
10551.6030850983
 20
5380.9530488358
 10
10553.2248673293
 20
5380.9546675407
 10
10554.8080575659
 20
5381.135808824
 10
10556.2786275922
 20
5381.4880027207
 10
10557.5678151882
 20
5381.9947810357
 10
10558.6153393747
 20
5382.6324473782
 10
10559.372219085
 20
5383.3711851786
 10
10559.8030634651
 20
5384.1764518786
 10
10559.8877267106
 20
5385.0105941023
 10
10559.6222500622
 20
5385.8346082862
 10
10559.0190469129
 20
5386.6099644431
 10
10558.8955725197
 20
5386.7246226303
  0
LWPOLYLINE
  5
140
330
1F
100
AcDbEntity
  8
0
  6
Continuous
 62
     7
370
    15
100
AcDbPolyline
 90
       21
 70
   128
 43
0.0
 10
10601.7698378032
 20
5441.2578177514
 10
10601.1724739857
 20
5440.4812633057
 10
10600.9132002995
 20
5439.6567253672
 10
10601.0041400939
 20
5438.8227584134
 10
10601.4410411253
 20
5438.0183578122
 10
10602.203474387
 20
5437.2811364417
 10
10603.255789347
 20
5436.6455659538
 10
10604.5487809275
 20
5436.1413649182
 10
10606.0219902791
 20
5435.7921092149
 10
10607.6065317699
 20
5435.6141296524
 10
10609.2283140009
 20
5435.6157483572
 10
10610.8115042375
 20
5435.7968896405
 10
10612.2820742638
 20
5436.1490835372
 10
10613.5712618598
 20
5436.6558618522
 10
10614.6187860463
 20
5437.2935281947
 10
10615.3756657566
 20
5438.0322659952
 10
10615.8065101367
 20
5438.8375326952
 10
10615.8911733822
 20
5439.6716749188
 10
10615.6256967338
 20
5440.4956891027
 10
10615.0224935845
 20
5441.2710452596
 10
10614.8990191913
 20
5441.3857034468
  0
LINE
  5
141
330
1F
100
AcDbEntity
  8
0
  6
Continuous
 62
     7
370
    15
100
AcDbLine
 10
9277.5865254224
 20
4117.1263071191
 30
0.0
 11
9277.5865254224
 21
4123.9836455247
 31
0.0
  0
LINE
  5
142
330
1F
100
AcDbEntity
  8
0
  6
Continuous
 62
     7
370
    15
100
AcDbLine
 10
9251.0539817721
 20
4124.3372839596
 30
0.0
 11
9277.5865254224
 21
4117.1263071191
 31
0.0
  0
LINE
  5
143
330
1F
100
AcDbEntity
  8
0
  6
Continuous
 62
     7
370
    15
100
AcDbLine
 10
9251.0539817721
 20
4131.1946223652
 30
0.0
 11
9251.0539817721
 21
4124.3372839596
 31
0.0
  0
LINE
  5
144
330
1F
100
AcDbEntity
  8
0
  6
Continuous
 62
     7
370
    15
100
AcDbLine
 10
10677.6726922126
 20
5483.6533275319
 30
0.0
 11
10677.6726922126
 21
5490.5106659375
 31
0.0
  0
LINE
  5
145
330
1F
100
AcDbEntity
  8
0
  6
Continuous
 62
     7
370
    15
100
AcDbLine
 10
10677.6726922126
 20
5483.6533275319
 30
0.0
 11
9277.5865254224
 21
4117.1263071191
 31
0.0
  0
ENDSEC
  0
SECTION
  2
OBJECTS
  0
DICTIONARY
  5
C
330
0
100
AcDbDictionary
281
     1
  3
ACAD_GROUP
350
D
  3
ACAD_LAYOUT
350
1A
  3
ACAD_MLINESTYLE
350
17
  3
ACAD_PLOTSETTINGS
350
19
  3
ACAD_PLOTSTYLENAME
350
E
  3
ACAD_SCALELIST
350
47
  0
DICTIONARY
  5
D
102
{ACAD_REACTORS
330
C
102
}
330
C
100
AcDbDictionary
281
     1
  0
DICTIONARY
  5
1A
102
{ACAD_REACTORS
330
C
102
}
330
C
100
AcDbDictionary
281
     1
  3
Layout1
350
1E
  3
Layout2
350
26
  3
Model
350
22
  0
DICTIONARY
  5
17
102
{ACAD_REACTORS
330
C
102
}
330
C
100
AcDbDictionary
281
     1
  3
Standard
350
18
  0
DICTIONARY
  5
19
102
{ACAD_REACTORS
330
C
102
}
330
C
100
AcDbDictionary
281
     1
  0
ACDBDICTIONARYWDFLT
  5
E
102
{ACAD_REACTORS
330
C
102
}
330
C
100
AcDbDictionary
281
     1
  3
Normal
350
F
100
AcDbDictionaryWithDefault
340
F
  0
DICTIONARY
  5
47
102
{ACAD_REACTORS
330
C
102
}
330
C
100
AcDbDictionary
281
     1
  3
A0
350
48
  3
A1
350
49
  3
A2
350
4A
  3
A3
350
4B
  3
A4
350
4C
  3
A5
350
4D
  3
A6
350
4E
  3
A7
350
4F
  3
A8
350
50
  3
A9
350
51
  3
B0
350
52
  3
B1
350
53
  3
B2
350
54
  3
B3
350
55
  3
B4
350
56
  3
B5
350
57
  3
B6
350
58
  3
B7
350
59
  3
B8
350
5A
  3
B9
350
5B
  3
C0
350
5C
  3
C1
350
5D
  3
C2
350
5E
  3
C3
350
5F
  3
C4
350
60
  3
C5
350
61
  3
C6
350
62
  3
C7
350
63
  3
C8
350
64
  3
C9
350
65
  3
D0
350
66
  3
D1
350
67
  3
D2
350
68
  0
LAYOUT
  5
1E
102
{ACAD_REACTORS
330
1A
102
}
330
1A
100
AcDbPlotSettings
  1

  2
none_device
  4

  6

 40
0.0
 41
0.0
 42
0.0
 43
0.0
 44
0.0
 45
0.0
 46
0.0
 47
0.0
 48
0.0
 49
0.0
140
0.0
141
0.0
142
1.0
143
1.0
 70
   688
 72
     1
 73
     0
 74
     5
  7

 75
    16
147
1.0
148
0.0
149
0.0
100
AcDbLayout
  1
Layout1
 70
     1
 71
     1
 10
0.0
 20
0.0
 11
420.0
 21
297.0
 12
0.0
 22
0.0
 32
0.0
 14
1.0000000000E+20
 24
1.0000000000E+20
 34
1.0000000000E+20
 15
-1.0000000000E+20
 25
-1.0000000000E+20
 35
-1.0000000000E+20
146
0.0
 13
0.0
 23
0.0
 33
0.0
 16
1.0
 26
0.0
 36
0.0
 17
0.0
 27
1.0
 37
0.0
 76
     0
330
1B
  0
LAYOUT
  5
26
102
{ACAD_REACTORS
330
1A
102
}
330
1A
100
AcDbPlotSettings
  1

  2
none_device
  4

  6

 40
0.0
 41
0.0
 42
0.0
 43
0.0
 44
0.0
 45
0.0
 46
0.0
 47
0.0
 48
0.0
 49
0.0
140
0.0
141
0.0
142
1.0
143
1.0
 70
   688
 72
     1
 73
     0
 74
     5
  7

 75
    16
147
1.0
148
0.0
149
0.0
100
AcDbLayout
  1
Layout2
 70
     1
 71
     2
 10
0.0
 20
0.0
 11
0.0
 21
0.0
 12
0.0
 22
0.0
 32
0.0
 14
0.0
 24
0.0
 34
0.0
 15
0.0
 25
0.0
 35
0.0
146
0.0
 13
0.0
 23
0.0
 33
0.0
 16
1.0
 26
0.0
 36
0.0
 17
0.0
 27
1.0
 37
0.0
 76
     0
330
23
  0
LAYOUT
  5
22
102
{ACAD_REACTORS
330
1A
102
}
330
1A
100
AcDbPlotSettings
  1

  2
none_device
  4
Letter_(8.50_x_11.00_Inches)
  6

 40
6.35
 41
6.35
 42
6.35000508
 43
6.35000508
 44
215.9
 45
279.4
 46
0.0
 47
0.0
 48
0.0
 49
0.0
140
0.0
141
0.0
142
1.0
143
1.0
 70
  1712
 72
     1
 73
     0
 74
     0
  7

 75
     0
147
1.0
148
0.0
149
0.0
100
AcDbLayout
  1
Model
 70
     1
 71
     0
 10
0.0
 20
0.0
 11
14850.0
 21
10500.0
 12
0.0
 22
0.0
 32
0.0
 14
0.0
 24
0.0
 34
0.0
 15
14850.0
 25
10500.0
 35
0.0
146
0.0
 13
0.0
 23
0.0
 33
0.0
 16
1.0
 26
0.0
 36
0.0
 17
0.0
 27
1.0
 37
0.0
 76
     0
330
1F
331
29
  0
MLINESTYLE
  5
18
102
{ACAD_REACTORS
330
17
102
}
330
17
100
AcDbMlineStyle
  2
Standard
 70
     0
  3

 62
   256
 51
90.0
 52
90.0
 71
     2
 49
0.5
 62
   256
  6
BYLAYER
 49
-0.5
 62
   256
  6
BYLAYER
  0
ACDBPLACEHOLDER
  5
F
102
{ACAD_REACTORS
330
E
102
}
330
E
  0
SCALE
  5
48
102
{ACAD_REACTORS
330
47
102
}
330
47
100
AcDbScale
 70
     0
300
1:1
140
1.0
141
1.0
290
     1
  0
SCALE
  5
49
102
{ACAD_REACTORS
330
47
102
}
330
47
100
AcDbScale
 70
     0
300
1:2
140
1.0
141
2.0
290
     0
  0
SCALE
  5
4A
102
{ACAD_REACTORS
330
47
102
}
330
47
100
AcDbScale
 70
     0
300
1:4
140
1.0
141
4.0
290
     0
  0
SCALE
  5
4B
102
{ACAD_REACTORS
330
47
102
}
330
47
100
AcDbScale
 70
     0
300
1:5
140
1.0
141
5.0
290
     0
  0
SCALE
  5
4C
102
{ACAD_REACTORS
330
47
102
}
330
47
100
AcDbScale
 70
     0
300
1:8
140
1.0
141
8.0
290
     0
  0
SCALE
  5
4D
102
{ACAD_REACTORS
330
47
102
}
330
47
100
AcDbScale
 70
     0
300
1:10
140
1.0
141
10.0
290
     0
  0
SCALE
  5
4E
102
{ACAD_REACTORS
330
47
102
}
330
47
100
AcDbScale
 70
     0
300
1:16
140
1.0
141
16.0
290
     0
  0
SCALE
  5
4F
102
{ACAD_REACTORS
330
47
102
}
330
47
100
AcDbScale
 70
     0
300
1:20
140
1.0
141
20.0
290
     0
  0
SCALE
  5
50
102
{ACAD_REACTORS
330
47
102
}
330
47
100
AcDbScale
 70
     0
300
1:30
140
1.0
141
30.0
290
     0
  0
SCALE
  5
51
102
{ACAD_REACTORS
330
47
102
}
330
47
100
AcDbScale
 70
     0
300
1:40
140
1.0
141
40.0
290
     0
  0
SCALE
  5
52
102
{ACAD_REACTORS
330
47
102
}
330
47
100
AcDbScale
 70
     0
300
1:50
140
1.0
141
50.0
290
     0
  0
SCALE
  5
53
102
{ACAD_REACTORS
330
47
102
}
330
47
100
AcDbScale
 70
     0
300
1:100
140
1.0
141
100.0
290
     0
  0
SCALE
  5
54
102
{ACAD_REACTORS
330
47
102
}
330
47
100
AcDbScale
 70
     0
300
2:1
140
2.0
141
1.0
290
     0
  0
SCALE
  5
55
102
{ACAD_REACTORS
330
47
102
}
330
47
100
AcDbScale
 70
     0
300
4:1
140
4.0
141
1.0
290
     0
  0
SCALE
  5
56
102
{ACAD_REACTORS
330
47
102
}
330
47
100
AcDbScale
 70
     0
300
8:1
140
8.0
141
1.0
290
     0
  0
SCALE
  5
57
102
{ACAD_REACTORS
330
47
102
}
330
47
100
AcDbScale
 70
     0
300
10:1
140
10.0
141
1.0
290
     0
  0
SCALE
  5
58
102
{ACAD_REACTORS
330
47
102
}
330
47
100
AcDbScale
 70
     0
300
100:1
140
100.0
141
1.0
290
     0
  0
SCALE
  5
59
102
{ACAD_REACTORS
330
47
102
}
330
47
100
AcDbScale
 70
     0
300
1/128" = 1'-0"
140
0.0078125
141
12.0
290
     0
  0
SCALE
  5
5A
102
{ACAD_REACTORS
330
47
102
}
330
47
100
AcDbScale
 70
     0
300
1/64" = 1'-0"
140
0.015625
141
12.0
290
     0
  0
SCALE
  5
5B
102
{ACAD_REACTORS
330
47
102
}
330
47
100
AcDbScale
 70
     0
300
1/32" = 1'-0"
140
0.03125
141
12.0
290
     0
  0
SCALE
  5
5C
102
{ACAD_REACTORS
330
47
102
}
330
47
100
AcDbScale
 70
     0
300
1/16" = 1'-0"
140
0.0625
141
12.0
290
     0
  0
SCALE
  5
5D
102
{ACAD_REACTORS
330
47
102
}
330
47
100
AcDbScale
 70
     0
300
3/32" = 1'-0"
140
0.09375
141
12.0
290
     0
  0
SCALE
  5
5E
102
{ACAD_REACTORS
330
47
102
}
330
47
100
AcDbScale
 70
     0
300
1/8" = 1'-0"
140
0.125
141
12.0
290
     0
  0
SCALE
  5
5F
102
{ACAD_REACTORS
330
47
102
}
330
47
100
AcDbScale
 70
     0
300
3/16" = 1'-0"
140
0.1875
141
12.0
290
     0
  0
SCALE
  5
60
102
{ACAD_REACTORS
330
47
102
}
330
47
100
AcDbScale
 70
     0
300
1/4" = 1'-0"
140
0.25
141
12.0
290
     0
  0
SCALE
  5
61
102
{ACAD_REACTORS
330
47
102
}
330
47
100
AcDbScale
 70
     0
300
3/8" = 1'-0"
140
0.375
141
12.0
290
     0
  0
SCALE
  5
62
102
{ACAD_REACTORS
330
47
102
}
330
47
100
AcDbScale
 70
     0
300
1/2" = 1'-0"
140
0.5
141
12.0
290
     0
  0
SCALE
  5
63
102
{ACAD_REACTORS
330
47
102
}
330
47
100
AcDbScale
 70
     0
300
3/4" = 1'-0"
140
0.75
141
12.0
290
     0
  0
SCALE
  5
64
102
{ACAD_REACTORS
330
47
102
}
330
47
100
AcDbScale
 70
     0
300
1" = 1'-0"
140
1.0
141
12.0
290
     0
  0
SCALE
  5
65
102
{ACAD_REACTORS
330
47
102
}
330
47
100
AcDbScale
 70
     0
300
1-1/2" = 1'-0"
140
1.5
141
12.0
290
     0
  0
SCALE
  5
66
102
{ACAD_REACTORS
330
47
102
}
330
47
100
AcDbScale
 70
     0
300
3" = 1'-0"
140
3.0
141
12.0
290
     0
  0
SCALE
  5
67
102
{ACAD_REACTORS
330
47
102
}
330
47
100
AcDbScale
 70
     0
300
6" = 1'-0"
140
6.0
141
12.0
290
     0
  0
SCALE
  5
68
102
{ACAD_REACTORS
330
47
102
}
330
47
100
AcDbScale
 70
     0
300
1'-0" = 1'-0"
140
12.0
141
12.0
290
     0
  0
ENDSEC
  0
EOF
