  0
SECTION
  2
HEADER
  9
$ACADVER
  1
AC1015
  9
$ACADMAINTVER
 70
     6
  9
$DWGCODEPAGE
  3
ANSI_1252
  9
$INSBASE
 10
0.0
 20
0.0
 30
0.0
  9
$EXTMIN
 10
0.0
 20
0.0
 30
0.0
  9
$EXTMAX
 10
297.0
 20
210.0
 30
0.0
  9
$LIMMIN
 10
0.0
 20
0.0
  9
$LIMMAX
 10
297.0
 20
210.0
  9
$ORTHOMODE
 70
     0
  9
$REGENMODE
 70
     1
  9
$FILLMODE
 70
     1
  9
$QTEXTMODE
 70
     0
  9
$MIRRTEXT
 70
     1
  9
$LTSCALE
 40
1.0
  9
$ATTMODE
 70
     1
  9
$TEXTSIZE
 40
3.5
  9
$TRACEWID
 40
1.0
  9
$TEXTSTYLE
  7
Standard
  9
$CLAYER
  8
0
  9
$CELTYPE
  6
ByLayer
  9
$CECOLOR
 62
   256
  9
$CELTSCALE
 40
1.0
  9
$DISPSILH
 70
     0
  9
$DIMSCALE
 40
1.0
  9
$DIMASZ
 40
3.302
  9
$DIMEXO
 40
1.0
  9
$DIMDLI
 40
3.75
  9
$DIMRND
 40
0.0
  9
$DIMDLE
 40
0.0
  9
$DIMEXE
 40
1.0
  9
$DIMTP
 40
0.0
  9
$DIMTM
 40
0.0
  9
$DIMTXT
 40
3.5
  9
$DIMCEN
 40
2.5
  9
$DIMTSZ
 40
0.0
  9
$DIMTOL
 70
     0
  9
$DIMLIM
 70
     0
  9
$DIMTIH
 70
     1
  9
$DIMTOH
 70
     1
  9
$DIMSE1
 70
     0
  9
$DIMSE2
 70
     0
  9
$DIMTAD
 70
     1
  9
$DIMZIN
 70
     0
  9
$DIMBLK
  1

  9
$DIMASO
 70
     1
  9
$DIMSHO
 70
     1
  9
$DIMPOST
  1

  9
$DIMAPOST
  1

  9
$DIMALT
 70
     0
  9
$DIMALTD
 70
     3
  9
$DIMALTF
 40
0.0393700787
  9
$DIMLFAC
 40
1.0
  9
$DIMTOFL
 70
     1
  9
$DIMTVP
 40
0.0
  9
$DIMTIX
 70
     0
  9
$DIMSOXD
 70
     0
  9
$DIMSAH
 70
     0
  9
$DIMBLK1
  1

  9
$DIMBLK2
  1

  9
$DIMSTYLE
  2
ISO-25
  9
$DIMCLRD
 70
     0
  9
$DIMCLRE
 70
     0
  9
$DIMCLRT
 70
     0
  9
$DIMTFAC
 40
1.0
  9
$DIMGAP
 40
1.524
  9
$DIMJUST
 70
     0
  9
$DIMSD1
 70
     0
  9
$DIMSD2
 70
     0
  9
$DIMTOLJ
 70
     0
  9
$DIMTZIN
 70
     0
  9
$DIMALTZ
 70
     0
  9
$DIMALTTZ
 70
     0
  9
$DIMUPT
 70
     0
  9
$DIMDEC
 70
     2
  9
$DIMTDEC
 70
     2
  9
$DIMALTU
 70
     2
  9
$DIMALTTD
 70
     3
  9
$DIMTXSTY
  7
Standard
  9
$DIMAUNIT
 70
     0
  9
$DIMADEC
 70
     2
  9
$DIMALTRND
 40
0.0
  9
$DIMAZIN
 70
     0
  9
$DIMDSEP
 70
    44
  9
$DIMATFIT
 70
     3
  9
$DIMFRAC
 70
     0
  9
$DIMLDRBLK
  1

  9
$DIMLUNIT
 70
     2
  9
$DIMLWD
 70
    -2
  9
$DIMLWE
 70
    -2
  9
$DIMTMOVE
 70
     0
  9
$LUNITS
 70
     2
  9
$LUPREC
 70
     2
  9
$SKETCHINC
 40
1.0
  9
$FILLETRAD
 40
10.0
  9
$AUNITS
 70
     0
  9
$AUPREC
 70
     2
  9
$MENU
  1
.
  9
$ELEVATION
 40
0.0
  9
$PELEVATION
 40
0.0
  9
$THICKNESS
 40
0.0
  9
$LIMCHECK
 70
     0
  9
$CHAMFERA
 40
0.0
  9
$CHAMFERB
 40
0.0
  9
$CHAMFERC
 40
0.0
  9
$CHAMFERD
 40
0.0
  9
$SKPOLY
 70
     0
  9
$TDCREATE
 40
2456944.461538287
  9
$TDUCREATE
 40
2456944.378204954
  9
$TDUPDATE
 40
2456944.461540451
  9
$TDUUPDATE
 40
2456944.378207118
  9
$TDINDWG
 40
0.0000000116
  9
$TDUSRTIMER
 40
0.0000000116
  9
$USRTIMER
 70
     1
  9
$ANGBASE
 50
0.0
  9
$ANGDIR
 70
     0
  9
$PDMODE
 70
     0
  9
$PDSIZE
 40
-1.0
  9
$PLINEWID
 40
0.0
  9
$SPLFRAME
 70
     0
  9
$SPLINETYPE
 70
     6
  9
$SPLINESEGS
 70
     8
  9
$HANDSEED
  5
202
  9
$SURFTAB1
 70
     6
  9
$SURFTAB2
 70
     6
  9
$SURFTYPE
 70
     6
  9
$SURFU
 70
     6
  9
$SURFV
 70
     6
  9
$UCSBASE
  2

  9
$UCSNAME
  2

  9
$UCSORG
 10
0.0
 20
0.0
 30
0.0
  9
$UCSXDIR
 10
1.0
 20
0.0
 30
0.0
  9
$UCSYDIR
 10
0.0
 20
1.0
 30
0.0
  9
$UCSORTHOREF
  2

  9
$UCSORTHOVIEW
 70
     0
  9
$UCSORGTOP
 10
0.0
 20
0.0
 30
0.0
  9
$UCSORGBOTTOM
 10
0.0
 20
0.0
 30
0.0
  9
$UCSORGLEFT
 10
0.0
 20
0.0
 30
0.0
  9
$UCSORGRIGHT
 10
0.0
 20
0.0
 30
0.0
  9
$UCSORGFRONT
 10
0.0
 20
0.0
 30
0.0
  9
$UCSORGBACK
 10
0.0
 20
0.0
 30
0.0
  9
$PUCSBASE
  2

  9
$PUCSNAME
  2

  9
$PUCSORG
 10
0.0
 20
0.0
 30
0.0
  9
$PUCSXDIR
 10
1.0
 20
0.0
 30
0.0
  9
$PUCSYDIR
 10
0.0
 20
1.0
 30
0.0
  9
$PUCSORTHOREF
  2

  9
$PUCSORTHOVIEW
 70
     0
  9
$PUCSORGTOP
 10
0.0
 20
0.0
 30
0.0
  9
$PUCSORGBOTTOM
 10
0.0
 20
0.0
 30
0.0
  9
$PUCSORGLEFT
 10
0.0
 20
0.0
 30
0.0
  9
$PUCSORGRIGHT
 10
0.0
 20
0.0
 30
0.0
  9
$PUCSORGFRONT
 10
0.0
 20
0.0
 30
0.0
  9
$PUCSORGBACK
 10
0.0
 20
0.0
 30
0.0
  9
$USERI1
 70
     0
  9
$USERI2
 70
     0
  9
$USERI3
 70
     0
  9
$USERI4
 70
     0
  9
$USERI5
 70
     0
  9
$USERR1
 40
0.0
  9
$USERR2
 40
0.0
  9
$USERR3
 40
0.0
  9
$USERR4
 40
0.0
  9
$USERR5
 40
0.0
  9
$WORLDVIEW
 70
     1
  9
$SHADEDGE
 70
     3
  9
$SHADEDIF
 70
    70
  9
$TILEMODE
 70
     1
  9
$MAXACTVP
 70
    64
  9
$PINSBASE
 10
0.0
 20
0.0
 30
0.0
  9
$PLIMCHECK
 70
     0
  9
$PEXTMIN
 10
1.0000000000E+20
 20
1.0000000000E+20
 30
1.0000000000E+20
  9
$PEXTMAX
 10
-1.0000000000E+20
 20
-1.0000000000E+20
 30
-1.0000000000E+20
  9
$PLIMMIN
 10
0.0
 20
0.0
  9
$PLIMMAX
 10
420.0
 20
297.0
  9
$UNITMODE
 70
     0
  9
$VISRETAIN
 70
     1
  9
$PLINEGEN
 70
     0
  9
$PSLTSCALE
 70
     1
  9
$TREEDEPTH
 70
  3020
  9
$CMLSTYLE
  2
Standard
  9
$CMLJUST
 70
     0
  9
$CMLSCALE
 40
20.0
  9
$PROXYGRAPHICS
 70
     1
  9
$MEASUREMENT
 70
     1
  9
$CELWEIGHT
370
    -1
  9
$ENDCAPS
280
     0
  9
$JOINSTYLE
280
     0
  9
$LWDISPLAY
290
     1
  9
$INSUNITS
 70
     4
  9
$HYPERLINKBASE
  1

  9
$STYLESHEET
  1

  9
$XEDIT
290
     1
  9
$CEPSNTYPE
380
     0
  9
$PSTYLEMODE
290
     1
  9
$FINGERPRINTGUID
  2
{F16C0591-94BC-486D-8BB5-14FD66B49209}
  9
$VERSIONGUID
  2
{FAEB1C32-E019-11D5-929B-00C0DF256EC4}
  9
$EXTNAMES
290
     1
  9
$PSVPSCALE
 40
0.0
  9
$OLESTARTUP
290
     0
  0
ENDSEC
  0
SECTION
  2
CLASSES
  0
CLASS
  1
ACDBDICTIONARYWDFLT
  2
AcDbDictionaryWithDefault
  3
ObjectDBX Classes
 90
        0
280
     0
281
     0
  0
CLASS
  1
VISUALSTYLE
  2
AcDbVisualStyle
  3
ObjectDBX Classes
 90
     4095
280
     0
281
     0
  0
CLASS
  1
MATERIAL
  2
AcDbMaterial
  3
ObjectDBX Classes
 90
     1153
280
     0
281
     0
  0
CLASS
  1
SCALE
  2
AcDbScale
  3
ObjectDBX Classes
 90
     1153
280
     0
281
     0
  0
CLASS
  1
SUN
  2
AcDbSun
  3
SCENEOE
 90
     1153
280
     0
281
     0
  0
CLASS
  1
ACDBPLACEHOLDER
  2
AcDbPlaceHolder
  3
ObjectDBX Classes
 90
        0
280
     0
281
     0
  0
CLASS
  1
LAYOUT
  2
AcDbLayout
  3
ObjectDBX Classes
 90
        0
280
     0
281
     0
  0
ENDSEC
  0
SECTION
  2
TABLES
  0
TABLE
  2
VPORT
  5
8
330
0
100
AcDbSymbolTable
 70
     1
  0
VPORT
  5
29
330
8
100
AcDbSymbolTableRecord
100
AcDbViewportTableRecord
  2
*Active
 70
     0
 10
0.0
 20
0.0
 11
1.0
 21
1.0
 12
148.5
 22
105.0
 13
0.0
 23
0.0
 14
10.0
 24
10.0
 15
10.0
 25
10.0
 16
0.0
 26
0.0
 36
1.0
 17
0.0
 27
0.0
 37
0.0
 40
210.0
 41
1.4142857143
 42
50.0
 43
0.0
 44
0.0
 50
0.0
 51
0.0
 71
     0
 72
  2000
 73
     1
 74
     3
 75
     0
 76
     0
 77
     0
 78
     0
281
     0
 65
     1
110
0.0
120
0.0
130
0.0
111
1.0
121
0.0
131
0.0
112
0.0
122
1.0
132
0.0
 79
     0
146
0.0
  0
ENDTAB
  0
TABLE
  2
LTYPE
  5
5
330
0
100
AcDbSymbolTable
 70
     6
  0
LTYPE
  5
14
330
5
100
AcDbSymbolTableRecord
100
AcDbLinetypeTableRecord
  2
ByBlock
 70
     0
  3

 72
    65
 73
     0
 40
0.0
  0
LTYPE
  5
15
330
5
100
AcDbSymbolTableRecord
100
AcDbLinetypeTableRecord
  2
ByLayer
 70
     0
  3

 72
    65
 73
     0
 40
0.0
  0
LTYPE
  5
16
330
5
100
AcDbSymbolTableRecord
100
AcDbLinetypeTableRecord
  2
Continuous
 70
     0
  3
Solid line
 72
    65
 73
     0
 40
0.0
  0
LTYPE
  5
6A
330
5
100
AcDbSymbolTableRecord
100
AcDbLinetypeTableRecord
  2
HIDDEN
 70
     0
  3
Hidden __ __ __ __ __ __ __ __ __ __ __ __ __ __
 72
    65
 73
     2
 40
1.905
 49
1.27
 74
     0
 49
-0.635
 74
     0
  0
LTYPE
  5
6B
330
5
100
AcDbSymbolTableRecord
100
AcDbLinetypeTableRecord
  2
PHANTOM
 70
     0
  3
Phantom ______  __  __  ______  __  __  ______
 72
    65
 73
     6
 40
12.7
 49
6.35
 74
     0
 49
-1.27
 74
     0
 49
1.27
 74
     0
 49
-1.27
 74
     0
 49
1.27
 74
     0
 49
-1.27
 74
     0
  0
LTYPE
  5
6C
330
5
100
AcDbSymbolTableRecord
100
AcDbLinetypeTableRecord
  2
CENTER
 70
     0
  3
Center ____ _ ____ _ ____ _ ____ _ ____ _ ____
 72
    65
 73
     4
 40
10.16
 49
6.35
 74
     0
 49
-1.27
 74
     0
 49
1.27
 74
     0
 49
-1.27
 74
     0
  0
LTYPE
  5
6D
330
5
100
AcDbSymbolTableRecord
100
AcDbLinetypeTableRecord
  2
CENTERX2
 70
     0
  3
Center (2x) ________  __  ________  __  _____
 72
    65
 73
     4
 40
20.32
 49
12.7
 74
     0
 49
-2.54
 74
     0
 49
2.54
 74
     0
 49
-2.54
 74
     0
  0
LTYPE
  5
6E
330
5
100
AcDbSymbolTableRecord
100
AcDbLinetypeTableRecord
  2
DOT2
 70
     0
  3
Dot (.5x) ........................................
 72
    65
 73
     2
 40
0.635
 49
0.0
 74
     0
 49
-0.635
 74
     0
  0
ENDTAB
  0
TABLE
  2
LAYER
  5
2
330
0
100
AcDbSymbolTable
 70
     2
  0
LAYER
  5
10
330
2
100
AcDbSymbolTableRecord
100
AcDbLayerTableRecord
  2
0
 70
     0
 62
     7
  6
Continuous
370
    -3
390
F
  0
LAYER
  5
6F
330
2
100
AcDbSymbolTableRecord
100
AcDbLayerTableRecord
  2
FORMAT
 70
     0
 62
     7
  6
Continuous
370
    -3
390
F
  0
ENDTAB
  0
TABLE
  2
STYLE
  5
3
330
0
100
AcDbSymbolTable
 70
     3
  0
STYLE
  5
11
330
3
100
AcDbSymbolTableRecord
100
AcDbTextStyleTableRecord
  2
Standard
 70
     0
 40
0.0
 41
1.0
 50
0.0
 71
     0
 42
3.5
  3
txt
  4

  0
STYLE
  5
8C
330
3
100
AcDbSymbolTableRecord
100
AcDbTextStyleTableRecord
  2
SLDTEXTSTYLE0
 70
     0
 40
0.0
 41
0.75
 50
0.0
 71
     0
 42
3.5
  3
TXT
  4

  0
STYLE
  5
94
330
3
100
AcDbSymbolTableRecord
100
AcDbTextStyleTableRecord
  2
SLDTEXTSTYLE1
 70
     0
 40
0.0
 41
0.6923076923
 50
0.0
 71
     0
 42
3.5
  3
TXT
  4

  0
ENDTAB
  0
TABLE
  2
VIEW
  5
6
330
0
100
AcDbSymbolTable
 70
     0
  0
ENDTAB
  0
TABLE
  2
UCS
  5
7
330
0
100
AcDbSymbolTable
 70
     0
  0
ENDTAB
  0
TABLE
  2
APPID
  5
9
330
0
100
AcDbSymbolTable
 70
     1
  0
APPID
  5
12
330
9
100
AcDbSymbolTableRecord
100
AcDbRegAppTableRecord
  2
ACAD
 70
     0
  0
ENDTAB
  0
TABLE
  2
DIMSTYLE
  5
A
330
0
100
AcDbSymbolTable
 70
     1
100
AcDbDimStyleTable
  0
DIMSTYLE
105
27
330
A
100
AcDbSymbolTableRecord
100
AcDbDimStyleTableRecord
  2
ISO-25
 70
     0
 41
2.5
 42
0.625
 43
3.75
 44
1.25
 73
     0
 74
     0
 77
     1
 78
     8
140
2.5
141
2.5
143
0.0393700787
147
0.625
171
     3
172
     1
178
     0
271
     2
272
     2
274
     3
278
    44
283
     0
284
     8
340
11
  0
ENDTAB
  0
TABLE
  2
BLOCK_RECORD
  5
1
330
0
100
AcDbSymbolTable
 70
     3
  0
BLOCK_RECORD
  5
1F
330
1
100
AcDbSymbolTableRecord
100
AcDbBlockTableRecord
  2
*Model_Space
340
22
  0
BLOCK_RECORD
  5
1B
330
1
100
AcDbSymbolTableRecord
100
AcDbBlockTableRecord
  2
*Paper_Space
340
1E
  0
BLOCK_RECORD
  5
23
330
1
100
AcDbSymbolTableRecord
100
AcDbBlockTableRecord
  2
*Paper_Space0
340
26
  0
BLOCK_RECORD
  5
B1
330
1
100
AcDbSymbolTableRecord
100
AcDbBlockTableRecord
  2
SW_CENTERMARKSYMBOL_0
340
0
102
{BLKREFS
331
BC
102
}
  0
BLOCK_RECORD
  5
17B
330
1
100
AcDbSymbolTableRecord
100
AcDbBlockTableRecord
  2
SW_CENTERMARKSYMBOL_1
340
0
102
{BLKREFS
331
186
102
}
  0
ENDTAB
  0
ENDSEC
  0
SECTION
  2
BLOCKS
  0
BLOCK
  5
20
330
1F
100
AcDbEntity
  8
0
100
AcDbBlockBegin
  2
*Model_Space
 70
     0
 10
0.0
 20
0.0
 30
0.0
  3
*Model_Space
  1
*Model_Space
  0
ENDBLK
  5
21
330
1F
100
AcDbEntity
  8
0
100
AcDbBlockEnd
  0
BLOCK
  5
1C
330
1B
100
AcDbEntity
 67
     1
  8
0
100
AcDbBlockBegin
  2
*Paper_Space
 70
     0
 10
0.0
 20
0.0
 30
0.0
  3
*Paper_Space
  1
*Paper_Space
  0
ENDBLK
  5
1D
330
1B
100
AcDbEntity
 67
     1
  8
0
100
AcDbBlockEnd
  0
BLOCK
  5
24
330
23
100
AcDbEntity
  8
0
100
AcDbBlockBegin
  2
*Paper_Space0
 70
     0
 10
0.0
 20
0.0
 30
0.0
  3
*Paper_Space0
  1
*Paper_Space0
  0
ENDBLK
  5
25
330
23
100
AcDbEntity
  8
0
100
AcDbBlockEnd
  0
BLOCK
  5
B2
330
B1
100
AcDbEntity
  8
0
100
AcDbBlockBegin
  2
SW_CENTERMARKSYMBOL_0
 70
     0
 10
0.0
 20
0.0
 30
0.0
  3
SW_CENTERMARKSYMBOL_0
  1
SW_CENTERMARKSYMBOL_0
  0
LINE
  5
B4
330
B1
100
AcDbEntity
  8
0
  6
Continuous
 62
     0
370
     0
100
AcDbLine
 10
0.0
 20
0.0
 30
0.0
 11
0.0
 21
2.5
 31
0.0
  0
LINE
  5
B5
330
B1
100
AcDbEntity
  8
0
  6
Continuous
 62
     0
370
     0
100
AcDbLine
 10
0.0
 20
0.0
 30
0.0
 11
-2.5
 21
0.0
 31
0.0
  0
LINE
  5
B6
330
B1
100
AcDbEntity
  8
0
  6
Continuous
 62
     0
370
     0
100
AcDbLine
 10
0.0
 20
0.0
 30
0.0
 11
0.0
 21
-2.5
 31
0.0
  0
LINE
  5
B7
330
B1
100
AcDbEntity
  8
0
  6
Continuous
 62
     0
370
     0
100
AcDbLine
 10
0.0
 20
0.0
 30
0.0
 11
2.5
 21
0.0
 31
0.0
  0
LINE
  5
B8
330
B1
100
AcDbEntity
  8
0
  6
Continuous
 62
     0
370
     0
100
AcDbLine
 10
0.0
 20
5.0
 30
0.0
 11
0.0
 21
40.5
 31
0.0
  0
LINE
  5
B9
330
B1
100
AcDbEntity
  8
0
  6
Continuous
 62
     0
370
     0
100
AcDbLine
 10
-5.0
 20
0.0
 30
0.0
 11
-40.5
 21
0.0
 31
0.0
  0
LINE
  5
BA
330
B1
100
AcDbEntity
  8
0
  6
Continuous
 62
     0
370
     0
100
AcDbLine
 10
0.0
 20
-5.0
 30
0.0
 11
0.0
 21
-40.5
 31
0.0
  0
LINE
  5
BB
330
B1
100
AcDbEntity
  8
0
  6
Continuous
 62
     0
370
     0
100
AcDbLine
 10
5.0
 20
0.0
 30
0.0
 11
40.5
 21
0.0
 31
0.0
  0
ENDBLK
  5
B3
330
B1
100
AcDbEntity
  8
0
100
AcDbBlockEnd
  0
BLOCK
  5
17C
330
17B
100
AcDbEntity
  8
0
100
AcDbBlockBegin
  2
SW_CENTERMARKSYMBOL_1
 70
     0
 10
0.0
 20
0.0
 30
0.0
  3
SW_CENTERMARKSYMBOL_1
  1
SW_CENTERMARKSYMBOL_1
  0
LINE
  5
17E
330
17B
100
AcDbEntity
  8
0
  6
Continuous
 62
     0
370
     0
100
AcDbLine
 10
0.0
 20
0.0
 30
0.0
 11
0.0
 21
2.5
 31
0.0
  0
LINE
  5
17F
330
17B
100
AcDbEntity
  8
0
  6
Continuous
 62
     0
370
     0
100
AcDbLine
 10
0.0
 20
0.0
 30
0.0
 11
-2.5
 21
0.0
 31
0.0
  0
LINE
  5
180
330
17B
100
AcDbEntity
  8
0
  6
Continuous
 62
     0
370
     0
100
AcDbLine
 10
0.0
 20
0.0
 30
0.0
 11
0.0
 21
-2.5
 31
0.0
  0
LINE
  5
181
330
17B
100
AcDbEntity
  8
0
  6
Continuous
 62
     0
370
     0
100
AcDbLine
 10
0.0
 20
0.0
 30
0.0
 11
2.5
 21
0.0
 31
0.0
  0
LINE
  5
182
330
17B
100
AcDbEntity
  8
0
  6
Continuous
 62
     0
370
     0
100
AcDbLine
 10
0.0
 20
5.0
 30
0.0
 11
0.0
 21
40.5
 31
0.0
  0
LINE
  5
183
330
17B
100
AcDbEntity
  8
0
  6
Continuous
 62
     0
370
     0
100
AcDbLine
 10
-5.0
 20
0.0
 30
0.0
 11
-40.5
 21
0.0
 31
0.0
  0
LINE
  5
184
330
17B
100
AcDbEntity
  8
0
  6
Continuous
 62
     0
370
     0
100
AcDbLine
 10
0.0
 20
-5.0
 30
0.0
 11
0.0
 21
-40.5
 31
0.0
  0
LINE
  5
185
330
17B
100
AcDbEntity
  8
0
  6
Continuous
 62
     0
370
     0
100
AcDbLine
 10
5.0
 20
0.0
 30
0.0
 11
40.5
 21
0.0
 31
0.0
  0
ENDBLK
  5
17D
330
17B
100
AcDbEntity
  8
0
100
AcDbBlockEnd
  0
ENDSEC
  0
SECTION
  2
ENTITIES
  0
LINE
  5
70
330
1F
100
AcDbEntity
  8
0
  6
Continuous
 62
     7
370
     0
100
AcDbLine
 10
292.0
 20
205.0
 30
0.0
 11
292.0
 21
5.0
 31
0.0
  0
LINE
  5
71
330
1F
100
AcDbEntity
  8
0
  6
Continuous
 62
     7
370
     0
100
AcDbLine
 10
159.4
 20
34.75
 30
0.0
 11
174.13
 21
34.75
 31
0.0
  0
LINE
  5
72
330
1F
100
AcDbEntity
  8
0
  6
Continuous
 62
     7
370
     0
100
AcDbLine
 10
203.6
 20
34.75
 30
0.0
 11
292.0
 21
34.75
 31
0.0
  0
LINE
  5
73
330
1F
100
AcDbEntity
  8
0
  6
Continuous
 62
     7
370
     0
100
AcDbLine
 10
159.4
 20
9.25
 30
0.0
 11
292.0
 21
9.25
 31
0.0
  0
LINE
  5
74
330
1F
100
AcDbEntity
  8
0
  6
Continuous
 62
     7
370
     0
100
AcDbLine
 10
159.4
 20
34.75
 30
0.0
 11
159.4
 21
28.375
 31
0.0
  0
LINE
  5
75
330
1F
100
AcDbEntity
  8
0
  6
Continuous
 62
     7
370
     0
100
AcDbLine
 10
292.0
 20
22.0
 30
0.0
 11
279.0
 21
22.0
 31
0.0
  0
LINE
  5
76
330
1F
100
AcDbEntity
  8
0
  6
Continuous
 62
     7
370
     0
100
AcDbLine
 10
188.86
 20
22.0
 30
0.0
 11
203.6
 21
22.0
 31
0.0
  0
LINE
  5
77
330
1F
100
AcDbEntity
  8
0
  6
Continuous
 62
     7
370
     0
100
AcDbLine
 10
203.6
 20
34.75
 30
0.0
 11
203.6
 21
5.0
 31
0.0
  0
LINE
  5
78
330
1F
100
AcDbEntity
  8
0
  6
Continuous
 62
     7
370
     0
100
AcDbLine
 10
247.8
 20
5.0
 30
0.0
 11
247.8
 21
9.25
 31
0.0
  0
LINE
  5
79
330
1F
100
AcDbEntity
  8
0
  6
Continuous
 62
     7
370
     0
100
AcDbLine
 10
174.13
 20
34.75
 30
0.0
 11
188.86
 21
34.75
 31
0.0
  0
LINE
  5
7A
330
1F
100
AcDbEntity
  8
0
  6
Continuous
 62
     7
370
     0
100
AcDbLine
 10
279.0
 20
9.25
 30
0.0
 11
279.0
 21
15.4949693602
 31
0.0
  0
LINE
  5
7B
330
1F
100
AcDbEntity
  8
0
  6
Continuous
 62
     7
370
     0
100
AcDbLine
 10
188.86
 20
34.75
 30
0.0
 11
203.6
 21
34.75
 31
0.0
  0
LINE
  5
7C
330
1F
100
AcDbEntity
  8
0
  6
Continuous
 62
     7
370
     0
100
AcDbLine
 10
292.0
 20
15.4949693602
 30
0.0
 11
279.0
 21
15.4949693602
 31
0.0
  0
LINE
  5
7D
330
1F
100
AcDbEntity
  8
0
  6
Continuous
 62
     7
370
     0
100
AcDbLine
 10
203.6
 20
22.0
 30
0.0
 11
279.0
 21
22.0
 31
0.0
  0
LINE
  5
7E
330
1F
100
AcDbEntity
  8
0
  6
Continuous
 62
     7
370
     0
100
AcDbLine
 10
188.86
 20
34.75
 30
0.0
 11
188.86
 21
22.0
 31
0.0
  0
LINE
  5
7F
330
1F
100
AcDbEntity
  8
0
  6
Continuous
 62
     7
370
     0
100
AcDbLine
 10
188.86
 20
22.0
 30
0.0
 11
174.13
 21
22.0
 31
0.0
  0
LINE
  5
80
330
1F
100
AcDbEntity
  8
0
  6
Continuous
 62
     7
370
     0
100
AcDbLine
 10
292.0
 20
205.0
 30
0.0
 11
5.0
 21
205.0
 31
0.0
  0
LINE
  5
81
330
1F
100
AcDbEntity
  8
0
  6
Continuous
 62
     7
370
     0
100
AcDbLine
 10
5.0
 20
205.0
 30
0.0
 11
5.0
 21
5.0
 31
0.0
  0
LINE
  5
82
330
1F
100
AcDbEntity
  8
0
  6
Continuous
 62
     7
370
     0
100
AcDbLine
 10
5.0
 20
5.0
 30
0.0
 11
292.0
 21
5.0
 31
0.0
  0
LINE
  5
83
330
1F
100
AcDbEntity
  8
0
  6
Continuous
 62
     7
370
     0
100
AcDbLine
 10
174.13
 20
22.0
 30
0.0
 11
174.13
 21
34.75
 31
0.0
  0
LINE
  5
84
330
1F
100
AcDbEntity
  8
0
  6
Continuous
 62
     7
370
     0
100
AcDbLine
 10
174.13
 20
22.0
 30
0.0
 11
159.4
 21
22.0
 31
0.0
  0
LINE
  5
85
330
1F
100
AcDbEntity
  8
0
  6
Continuous
 62
     7
370
     0
100
AcDbLine
 10
279.0
 20
15.4949693602
 30
0.0
 11
279.0
 21
22.0
 31
0.0
  0
LINE
  5
86
330
1F
100
AcDbEntity
  8
0
  6
Continuous
 62
     7
370
     0
100
AcDbLine
 10
159.4
 20
28.375
 30
0.0
 11
174.13
 21
28.375
 31
0.0
  0
LINE
  5
87
330
1F
100
AcDbEntity
  8
0
  6
Continuous
 62
     7
370
     0
100
AcDbLine
 10
174.13
 20
28.375
 30
0.0
 11
188.86
 21
28.375
 31
0.0
  0
LINE
  5
88
330
1F
100
AcDbEntity
  8
0
  6
Continuous
 62
     7
370
     0
100
AcDbLine
 10
188.86
 20
28.375
 30
0.0
 11
203.6
 21
28.375
 31
0.0
  0
LINE
  5
89
330
1F
100
AcDbEntity
  8
0
  6
Continuous
 62
     7
370
     0
100
AcDbLine
 10
159.4
 20
22.0
 30
0.0
 11
159.4
 21
28.375
 31
0.0
  0
LINE
  5
8A
330
1F
100
AcDbEntity
  8
0
  6
Continuous
 62
     7
370
     0
100
AcDbLine
 10
159.4
 20
22.0
 30
0.0
 11
159.4
 21
9.25
 31
0.0
  0
LINE
  5
8B
330
1F
100
AcDbEntity
  8
0
  6
Continuous
 62
     7
370
     0
100
AcDbLine
 10
159.4
 20
5.0
 30
0.0
 11
159.4
 21
9.25
 31
0.0
  0
MTEXT
  5
8D
330
1F
100
AcDbEntity
  8
0
  6
Continuous
 62
     7
370
     0
100
AcDbMText
 10
280.2769372799
 20
19.4324449477
 30
0.0
 40
1.5
 41
0.0
 71
     1
 72
     1
  1
Blattformat
  7
SLDTEXTSTYLE0
 73
     1
 44
1.0
  0
MTEXT
  5
8E
330
1F
100
AcDbEntity
  8
0
  6
Continuous
 62
     7
370
     0
100
AcDbMText
 10
162.3642408927
 20
25.8749304694
 30
0.0
 40
1.5
 41
0.0
 71
     1
 72
     1
  1
Ch. Höfig
  7
SLDTEXTSTYLE0
 73
     1
 44
1.0
  0
MTEXT
  5
8F
330
1F
100
AcDbEntity
  8
0
  6
Continuous
 62
     7
370
     0
100
AcDbMText
 10
166.7761978259
 20
32.2182056354
 30
0.0
 40
1.5
 41
0.0
 71
     2
 72
     1
  1
Name
  7
SLDTEXTSTYLE0
 73
     1
 44
1.0
  0
MTEXT
  5
90
330
1F
100
AcDbEntity
  8
0
  6
Continuous
 62
     7
370
     0
100
AcDbMText
 10
160.4458623088
 20
20.9860562892
 30
0.0
 40
1.5
 41
0.0
 71
     1
 72
     1
  1
Werkstoff:
  7
SLDTEXTSTYLE0
 73
     1
 44
1.0
  0
MTEXT
  5
91
330
1F
100
AcDbEntity
  8
0
  6
Continuous
 62
     7
370
     0
100
AcDbMText
 10
204.8649859034
 20
32.246101463
 30
0.0
 40
1.5
 41
0.0
 71
     1
 72
     1
  1
Artikelnummer
  7
SLDTEXTSTYLE0
 73
     1
 44
1.0
  0
MTEXT
  5
92
330
1F
100
AcDbEntity
  8
0
  6
Continuous
 62
     7
370
     0
100
AcDbMText
 10
204.8739661175
 20
19.868637827
 30
0.0
 40
1.5
 41
0.0
 71
     1
 72
     1
  1
Hersteller
  7
SLDTEXTSTYLE0
 73
     1
 44
1.0
  0
MTEXT
  5
93
330
1F
100
AcDbEntity
  8
0
  6
Continuous
 62
     7
370
     0
100
AcDbMText
 10
204.8739661175
 20
7.9000872745
 30
0.0
 40
1.5
 41
0.0
 71
     1
 72
     1
  1
Massstab: 1:1
  7
SLDTEXTSTYLE0
 73
     1
 44
1.0
  0
MTEXT
  5
95
330
1F
100
AcDbEntity
  8
0
  6
Continuous
 62
     7
370
     0
100
AcDbMText
 10
249.2782944278
 20
7.9000872745
 30
0.0
 40
1.5
 41
0.0
 71
     1
 72
     1
  1
Blatt 1 von 1
  7
SLDTEXTSTYLE1
 73
     1
 44
1.0
  0
MTEXT
  5
96
330
1F
100
AcDbEntity
  8
0
  6
Continuous
 62
     7
370
     0
100
AcDbMText
 10
283.018201252
 20
14.214493588
 30
0.0
 40
2.9104166667
 41
0.0
 71
     1
 72
     1
  1
A4
  7
SLDTEXTSTYLE0
 73
     1
 44
1.0
  0
MTEXT
  5
97
330
1F
100
AcDbEntity
  8
0
  6
Continuous
 62
     7
370
     0
100
AcDbMText
 10
244.7857210818
 20
18.2877193736
 30
0.0
 40
5.2916666667
 41
0.0
 71
     2
 72
     1
  1
Feldmann GmbH
  7
SLDTEXTSTYLE0
 73
     1
 44
1.0
  0
MTEXT
  5
98
330
1F
100
AcDbEntity
  8
0
  6
Continuous
 62
     7
370
     0
100
AcDbMText
 10
196.2543489966
 20
32.2182056354
 30
0.0
 40
1.5
 41
0.0
 71
     2
 72
     1
  1
Datum
  7
SLDTEXTSTYLE0
 73
     1
 44
1.0
  0
MTEXT
  5
99
330
1F
100
AcDbEntity
  8
0
  6
Continuous
 62
     7
370
     0
100
AcDbMText
 10
180.0267509503
 20
25.8749304694
 30
0.0
 40
1.5
 41
0.0
 71
     1
 72
     1
  1
CH
  7
SLDTEXTSTYLE0
 73
     1
 44
1.0
  0
MTEXT
  5
9A
330
1F
100
AcDbEntity
  8
0
  6
Continuous
 62
     7
370
     0
100
AcDbMText
 10
191.3972993064
 20
25.8769670829
 30
0.0
 40
1.5
 41
0.0
 71
     1
 72
     1
  1
13.10.2014
  7
SLDTEXTSTYLE0
 73
     1
 44
1.0
  0
MTEXT
  5
9B
330
1F
100
AcDbEntity
  8
0
  6
Continuous
 62
     7
370
     0
100
AcDbMText
 10
181.5791402511
 20
7.872191447
 30
0.0
 40
1.5
 41
0.0
 71
     2
 72
     1
  1
Gewicht 0.092 kg
  7
SLDTEXTSTYLE0
 73
     1
 44
1.0
  0
MTEXT
  5
9C
330
1F
100
AcDbEntity
  8
0
  6
Continuous
 62
     7
370
     0
100
AcDbMText
 10
181.5165895434
 20
15.452418595
 30
0.0
 40
2.1166666667
 41
0.0
 71
     2
 72
     1
  1
1.0037 (S235JR)
  7
SLDTEXTSTYLE0
 73
     1
 44
1.0
  0
MTEXT
  5
9D
330
1F
100
AcDbEntity
  8
0
  6
Continuous
 62
     7
370
     0
100
AcDbMText
 10
230.5262559252
 20
29.393250804
 30
0.0
 40
4.2333333333
 41
0.0
 71
     2
 72
     1
  1
54276-ST
  7
SLDTEXTSTYLE0
 73
     1
 44
1.0
  0
MTEXT
  5
9E
330
1F
100
AcDbEntity
  8
0
  6
Continuous
 62
     7
370
     0
100
AcDbMText
 10
181.7530017825
 20
32.0187940875
 30
0.0
 40
1.5
 41
0.0
 71
     2
 72
     1
  1
Signatur
  7
SLDTEXTSTYLE0
 73
     1
 44
1.0
  0
LINE
  5
9F
330
1F
100
AcDbEntity
  8
0
  6
Continuous
 62
     7
370
    15
100
AcDbLine
 10
94.9961643119
 20
152.2411264612
 30
0.0
 11
94.9961643119
 21
154.7411264053
 31
0.0
  0
LINE
  5
A0
330
1F
100
AcDbEntity
  8
0
  6
Continuous
 62
     7
370
    15
100
AcDbLine
 10
18.9961667557
 20
154.7411264053
 30
0.0
 11
18.9961667557
 21
152.2411264612
 31
0.0
  0
ARC
  5
A1
330
1F
100
AcDbEntity
  8
0
  6
Continuous
 62
     7
370
    15
100
AcDbCircle
 10
56.9961655338
 20
62.2244597945
 30
0.0
 40
100.0166666666672
100
AcDbArc
 50
67.6702396449
 51
112.3297603551
  0
LINE
  5
A2
330
1F
100
AcDbEntity
  8
0
  6
Continuous
 62
     7
370
    15
100
AcDbLine
 10
94.9961643119
 20
152.2411264612
 30
0.0
 11
18.9961667557
 21
152.2411264612
 31
0.0
  0
LINE
  5
A3
330
1F
100
AcDbEntity
  8
0
  6
Continuous
 62
     7
370
    15
100
AcDbLine
 10
94.9961643119
 20
154.7411264053
 30
0.0
 11
18.9961667557
 21
154.7411264053
 31
0.0
  0
LINE
  5
A4
330
1F
100
AcDbEntity
  8
0
  6
Continuous
 62
     7
370
    15
100
AcDbLine
 10
191.2837307306
 20
152.2411264612
 30
0.0
 11
191.2837307306
 21
154.7411264053
 31
0.0
  0
LINE
  5
A5
330
1F
100
AcDbEntity
  8
0
  6
Continuous
 62
     7
370
    15
100
AcDbLine
 10
115.2837331744
 20
154.7411264053
 30
0.0
 11
115.2837331744
 21
152.2411264612
 31
0.0
  0
ARC
  5
A6
330
1F
100
AcDbEntity
  8
0
  6
Continuous
 62
     7
370
    15
100
AcDbCircle
 10
153.2837319525
 20
62.2244597945
 30
0.0
 40
100.0166666666672
100
AcDbArc
 50
67.6702396449
 51
112.3297603551
  0
LINE
  5
A7
330
1F
100
AcDbEntity
  8
0
  6
Continuous
 62
     7
370
    15
100
AcDbLine
 10
191.2837307306
 20
152.2411264612
 30
0.0
 11
115.2837331744
 21
152.2411264612
 31
0.0
  0
LINE
  5
A8
330
1F
100
AcDbEntity
  8
0
  6
Continuous
 62
     7
370
    15
100
AcDbLine
 10
191.2837307306
 20
154.7411264053
 30
0.0
 11
115.2837331744
 21
154.7411264053
 31
0.0
  0
LINE
  5
A9
330
1F
100
AcDbEntity
  8
0
  6
PHANTOM
 62
     7
370
    30
100
AcDbLine
 10
153.2837319525
 20
163.4411264612
 30
0.0
 11
153.2837319525
 21
151.0411264612
 31
0.0
  0
LINE
  5
AA
330
1F
100
AcDbEntity
  8
0
  6
Continuous
 62
     7
370
    30
100
AcDbLine
 10
165.9837319525
 20
161.4411264612
 30
0.0
 11
153.2837319525
 21
161.4411264612
 31
0.0
  0
SOLID
  5
AB
330
1F
100
AcDbEntity
  8
0
  6
Continuous
 62
     7
370
    30
100
AcDbTrace
 10
153.2837319525
 20
161.4411264612
 30
0.0
 11
159.6337319525
 21
160.4251264612
 31
0.0
 12
159.6337319525
 22
162.4571264612
 32
0.0
 13
159.6337319525
 23
162.4571264612
 33
0.0
  0
LINE
  5
AC
330
1F
100
AcDbEntity
  8
0
  6
Continuous
 62
     7
370
    30
100
AcDbLine
 10
165.9837319525
 20
153.0411264612
 30
0.0
 11
153.2837319525
 21
153.0411264612
 31
0.0
  0
SOLID
  5
AD
330
1F
100
AcDbEntity
  8
0
  6
Continuous
 62
     7
370
    30
100
AcDbTrace
 10
153.2837319525
 20
153.0411264612
 30
0.0
 11
159.6337319525
 21
152.0251264612
 31
0.0
 12
159.6337319525
 22
154.0571264612
 32
0.0
 13
159.6337319525
 23
154.0571264612
 33
0.0
  0
MTEXT
  5
AE
330
1F
100
AcDbEntity
  8
0
  6
Continuous
 62
     7
100
AcDbMText
 10
162.5328584137
 20
166.9975791711
 30
0.0
 40
3.5
 41
0.0
 71
     1
 72
     1
  1
A
  7
SLDTEXTSTYLE0
 73
     1
 44
1.0
  0
MTEXT
  5
AF
330
1F
100
AcDbEntity
  8
0
  6
Continuous
 62
     7
100
AcDbMText
 10
162.5328584137
 20
158.5975791711
 30
0.0
 40
3.5
 41
0.0
 71
     1
 72
     1
  1
A
  7
SLDTEXTSTYLE0
 73
     1
 44
1.0
  0
CIRCLE
  5
B0
330
1F
100
AcDbEntity
  8
0
  6
Continuous
 62
     7
370
    15
100
AcDbCircle
 10
56.9961655338
 20
99.8783209352
 30
0.0
 40
38.00000000000009
  0
INSERT
  5
BC
330
1F
100
AcDbEntity
  8
0
  6
Continuous
 62
     7
370
     0
100
AcDbBlockReference
  2
SW_CENTERMARKSYMBOL_0
 10
56.9961655338
 20
99.8783209352
 30
0.0
  0
LINE
  5
BD
330
1F
100
AcDbEntity
  8
0
  6
Continuous
 62
     7
370
    15
100
AcDbLine
 10
151.3007467175
 20
101.2351585077
 30
0.0
 11
151.3007467175
 21
99.8783209352
 31
0.0
  0
LINE
  5
BE
330
1F
100
AcDbEntity
  8
0
  6
Continuous
 62
     7
370
    15
100
AcDbLine
 10
151.1820235783
 20
101.2351585077
 30
0.0
 11
151.3007467175
 21
101.2351585077
 31
0.0
  0
LINE
  5
BF
330
1F
100
AcDbEntity
  8
0
  6
Continuous
 62
     7
370
    15
100
AcDbLine
 10
151.1820235783
 20
99.8783209352
 30
0.0
 11
151.1820235783
 21
101.2351585077
 31
0.0
  0
LINE
  5
C0
330
1F
100
AcDbEntity
  8
0
  6
Continuous
 62
     7
370
    15
100
AcDbLine
 10
151.3007467175
 20
99.8783209352
 30
0.0
 11
151.1820235783
 21
99.8783209352
 31
0.0
  0
LINE
  5
C1
330
1F
100
AcDbEntity
  8
0
  6
Continuous
 62
     7
370
    15
100
AcDbLine
 10
152.5558212334
 20
101.2351585077
 30
0.0
 11
152.5558212334
 21
99.8783209352
 31
0.0
  0
LINE
  5
C2
330
1F
100
AcDbEntity
  8
0
  6
Continuous
 62
     7
370
    15
100
AcDbLine
 10
152.4370980943
 20
101.2351585077
 30
0.0
 11
152.5558212334
 21
101.2351585077
 31
0.0
  0
LINE
  5
C3
330
1F
100
AcDbEntity
  8
0
  6
Continuous
 62
     7
370
    15
100
AcDbLine
 10
152.4370980943
 20
100.6579725644
 30
0.0
 11
152.4370980943
 21
101.2351585077
 31
0.0
  0
SPLINE
  5
C4
330
1F
100
AcDbEntity
  8
0
  6
Continuous
 62
     7
370
    15
100
AcDbSpline
210
0.0
220
0.0
230
1.0
 70
     8
 71
     3
 72
    13
 73
     9
 74
     0
 42
0.000000001
 43
0.00000001
 40
0.0
 40
0.0
 40
0.0
 40
0.0
 40
0.1258202597301406
 40
0.2514113307651784
 40
0.5008633331781301
 40
0.7495542523750492
 40
0.8675186069076894
 40
1.0
 40
1.0
 40
1.0
 40
1.0
 10
152.4370981744306
 20
100.6579725444168
 30
0.0
 10
152.4251811380963
 20
100.6730922585494
 30
0.0
 10
152.4013687729809
 20
100.7033041454033
 30
0.0
 10
152.3482996701912
 20
100.7587394612187
 30
0.0
 10
152.2695027620306
 20
100.8144838951535
 30
0.0
 10
152.1799280393436
 20
100.847169298863
 30
0.0
 10
152.1044281859914
 20
100.859080718097
 30
0.0
 10
152.0661799675428
 20
100.8610084590783
 30
0.0
 10
152.0459473330844
 20
100.8620282001326
 30
0.0
  0
SPLINE
  5
C5
330
1F
100
AcDbEntity
  8
0
  6
Continuous
 62
     7
370
    15
100
AcDbSpline
210
0.0
220
0.0
230
1.0
 70
     8
 71
     3
 72
    14
 73
    10
 74
     0
 42
0.000000001
 43
0.00000001
 40
0.0
 40
0.0
 40
0.0
 40
0.0
 40
0.0631860516869454
 40
0.1262867249150201
 40
0.2512549387317797
 40
0.5006643484966119
 40
0.7499810686999308
 40
0.8746975941076072
 40
0.9999999999999999
 40
0.9999999999999999
 40
0.9999999999999999
 40
0.9999999999999999
 10
152.0459473330844
 20
100.8620282001326
 30
0.0
 10
152.0293811984895
 20
100.8614445610357
 30
0.0
 10
151.9962713138449
 20
100.8602780714686
 30
0.0
 10
151.9307428863261
 20
100.8523449784046
 30
0.0
 10
151.819743494571
 20
100.8198386293319
 30
0.0
 10
151.6806726604205
 20
100.7261951252406
 30
0.0
 10
151.5824912595737
 20
100.5897971586396
 30
0.0
 10
151.5440891351802
 20
100.4630061465101
 30
0.0
 10
151.5401616195013
 20
100.3972829902101
 30
0.0
 10
151.5381932599007
 20
100.3643444060621
 30
0.0
  0
SPLINE
  5
C6
330
1F
100
AcDbEntity
  8
0
  6
Continuous
 62
     7
370
    15
100
AcDbSpline
210
0.0
220
0.0
230
1.0
 70
     8
 71
     3
 72
    15
 73
    11
 74
     0
 42
0.000000001
 43
0.00000001
 40
0.0
 40
0.0
 40
0.0
 40
0.0
 40
0.0631345238047053
 40
0.1260276292936507
 40
0.2510385027021478
 40
0.5001460748174994
 40
0.6648737403738126
 40
0.8291147212970632
 40
0.9109198930669928
 40
0.9999999999999999
 40
0.9999999999999999
 40
0.9999999999999999
 40
0.9999999999999999
 10
151.5381932599007
 20
100.3643444060621
 30
0.0
 10
151.538743630159
 20
100.3477077461711
 30
0.0
 10
151.5398422661302
 20
100.3144980428414
 30
0.0
 10
151.5483830147544
 20
100.248781025629
 30
0.0
 10
151.5812260232458
 20
100.1374920035999
 30
0.0
 10
151.6650591390374
 20
100.0178860762457
 30
0.0
 10
151.7855200483254
 20
99.92290774401079
 30
0.0
 10
151.8868456659601
 20
99.88068633161163
 30
0.0
 10
151.9738630688009
 20
99.86491038274062
 30
0.0
 10
152.01880804333
 20
99.86257688489573
 30
0.0
 10
152.0422372302532
 20
99.86136046508985
 30
0.0
  0
SPLINE
  5
C7
330
1F
100
AcDbEntity
  8
0
  6
Continuous
 62
     7
370
    15
100
AcDbSpline
210
0.0
220
0.0
230
1.0
 70
     8
 71
     3
 72
    14
 73
    10
 74
     0
 42
0.000000001
 43
0.00000001
 40
0.0
 40
0.0
 40
0.0
 40
0.0
 40
0.1253956626748834
 40
0.2505491370561695
 40
0.3099820825387149
 40
0.500033900685834
 40
0.7491695739471307
 40
0.874459511364137
 40
1.0
 40
1.0
 40
1.0
 40
1.0
 10
152.0422372302532
 20
99.86136046508985
 30
0.0
 10
152.0610798012568
 20
99.86186229007338
 30
0.0
 10
152.0987285508557
 20
99.86286497081923
 30
0.0
 10
152.144902235857
 20
99.86987512660862
 30
0.0
 10
152.1997584161274
 20
99.88249001691469
 30
0.0
 10
152.2708366315197
 20
99.90734948388024
 30
0.0
 10
152.3440447857296
 20
99.9522259639977
 30
0.0
 10
152.3993291855754
 20
100.0033740093731
 30
0.0
 10
152.4245001305034
 20
100.0314756929396
 30
0.0
 10
152.4370981744306
 20
100.0455405699242
 30
0.0
  0
LINE
  5
C8
330
1F
100
AcDbEntity
  8
0
  6
Continuous
 62
     7
370
    15
100
AcDbLine
 10
152.4370980943
 20
99.8783209352
 30
0.0
 11
152.4370980943
 21
100.0455405728
 31
0.0
  0
LINE
  5
C9
330
1F
100
AcDbEntity
  8
0
  6
Continuous
 62
     7
370
    15
100
AcDbLine
 10
152.5558212334
 20
99.8783209352
 30
0.0
 11
152.4370980943
 21
99.8783209352
 31
0.0
  0
LINE
  5
CA
330
1F
100
AcDbEntity
  8
0
  6
Continuous
 62
     7
370
    15
100
AcDbLine
 10
156.6432947321
 20
100.3720296421
 30
0.0
 11
156.6432947321
 21
99.8783209352
 31
0.0
  0
SPLINE
  5
CB
330
1F
100
AcDbEntity
  8
0
  6
Continuous
 62
     7
370
    15
100
AcDbSpline
210
0.0
220
0.0
230
1.0
 70
     8
 71
     3
 72
    15
 73
    11
 74
     0
 42
0.000000001
 43
0.00000001
 40
0.0
 40
0.0
 40
0.0
 40
0.0
 40
0.1280962161937909
 40
0.2507332798465858
 40
0.3757433496704214
 40
0.500622656735823
 40
0.6256220980126782
 40
0.7505590875860613
 40
0.8750578521234406
 40
1.0
 40
1.0
 40
1.0
 40
1.0
 10
156.6432947556272
 20
100.3720296190696
 30
0.0
 10
156.6429349538951
 20
100.4016522483103
 30
0.0
 10
156.6422306843151
 20
100.4596350616042
 30
0.0
 10
156.6340240668317
 20
100.5461774325995
 30
0.0
 10
156.6172619097518
 20
100.6310615680827
 30
0.0
 10
156.5804386966452
 20
100.7106992547806
 30
0.0
 10
156.5232130332618
 20
100.7771844166758
 30
0.0
 10
156.4511382135127
 20
100.8266630932041
 30
0.0
 10
156.3684876785106
 20
100.856272941422
 30
0.0
 10
156.3107465958788
 20
100.8601075085705
 30
0.0
 10
156.2818247369306
 20
100.8620282001326
 30
0.0
  0
SPLINE
  5
CC
330
1F
100
AcDbEntity
  8
0
  6
Continuous
 62
     7
370
    15
100
AcDbSpline
210
0.0
220
0.0
230
1.0
 70
     8
 71
     3
 72
    14
 73
    10
 74
     0
 42
0.000000001
 43
0.00000001
 40
0.0
 40
0.0
 40
0.0
 40
0.0
 40
0.0631091988973639
 40
0.1256828615692594
 40
0.2507911413381152
 40
0.499900746429731
 40
0.7491588011662215
 40
0.8744798927223459
 40
1.0
 40
1.0
 40
1.0
 40
1.0
 10
156.2818247369306
 20
100.8620282001326
 30
0.0
 10
156.272772312437
 20
100.8617427041868
 30
0.0
 10
156.2547442811141
 20
100.8611741349757
 30
0.0
 10
156.2188242947931
 20
100.8586033875595
 30
0.0
 10
156.1569159748807
 20
100.8478943488733
 30
0.0
 10
156.0719554457717
 20
100.8166869692475
 30
0.0
 10
155.9981491524427
 20
100.7641885049348
 30
0.0
 10
155.9479994928444
 20
100.7126867135313
 30
0.0
 10
155.9253355193975
 20
100.6846982377872
 30
0.0
 10
155.913994541952
 20
100.6706928969809
 30
0.0
  0
LINE
  5
CD
330
1F
100
AcDbEntity
  8
0
  6
Continuous
 62
     7
370
    15
100
AcDbLine
 10
155.9139945339
 20
100.8450677027
 30
0.0
 11
155.9139945339
 21
100.6706929174
 31
0.0
  0
LINE
  5
CE
330
1F
100
AcDbEntity
  8
0
  6
Continuous
 62
     7
370
    15
100
AcDbLine
 10
155.7952712784
 20
100.8450677027
 30
0.0
 11
155.9139945339
 21
100.8450677027
 31
0.0
  0
SPLINE
  5
CF
330
1F
100
AcDbEntity
  8
0
  6
Continuous
 62
     7
370
    15
100
AcDbSpline
210
0.0
220
0.0
230
1.0
 70
    24
 71
     3
 72
    10
 73
     6
 74
     0
 42
0.000000001
 43
0.00000001
 40
0.0
 40
0.0
 40
0.0
 40
0.0
 40
0.4999998079886115
 40
0.7499999039943193
 40
1.0
 40
1.0
 40
1.0
 40
1.0
 10
155.7952712513537
 20
100.8450677300471
 30
0.0
 10
155.7952712513537
 20
100.6839463203746
 30
0.0
 10
155.7952712513537
 20
100.4422641439914
 30
0.0
 10
155.7952712513537
 20
100.1200115159503
 30
0.0
 10
155.7952712513537
 20
99.95888446210033
 30
0.0
 10
155.7952712513537
 20
99.87832093517532
 30
0.0
  0
LINE
  5
D0
330
1F
100
AcDbEntity
  8
0
  6
Continuous
 62
     7
370
    15
100
AcDbLine
 10
155.9139945339
 20
99.8783209352
 30
0.0
 11
155.7952712784
 21
99.8783209352
 31
0.0
  0
LINE
  5
D1
330
1F
100
AcDbEntity
  8
0
  6
Continuous
 62
     7
370
    15
100
AcDbLine
 10
155.9139945339
 20
100.2278656224
 30
0.0
 11
155.9139945339
 21
99.8783209352
 31
0.0
  0
SPLINE
  5
D2
330
1F
100
AcDbEntity
  8
0
  6
Continuous
 62
     7
370
    15
100
AcDbSpline
210
0.0
220
0.0
230
1.0
 70
     8
 71
     3
 72
    10
 73
     6
 74
     0
 42
0.000000001
 43
0.00000001
 40
0.0
 40
0.0
 40
0.0
 40
0.0
 40
0.5001106340608539
 40
0.7501595195876981
 40
1.0
 40
1.0
 40
1.0
 40
1.0
 10
155.913994541952
 20
100.2278656233431
 30
0.0
 10
155.9145129483738
 20
100.2712817582046
 30
0.0
 10
155.9152905513397
 20
100.3364054021584
 30
0.0
 10
155.9203831860539
 20
100.4232337820334
 30
0.0
 10
155.9283155301979
 20
100.465955740429
 30
0.0
 10
155.9322800487629
 20
100.4873078141817
 30
0.0
  0
SPLINE
  5
D3
330
1F
100
AcDbEntity
  8
0
  6
Continuous
 62
     7
370
    15
100
AcDbSpline
210
0.0
220
0.0
230
1.0
 70
     8
 71
     3
 72
    13
 73
     9
 74
     0
 42
0.000000001
 43
0.00000001
 40
0.0
 40
0.0
 40
0.0
 40
0.0
 40
0.1324875412157779
 40
0.2509610715868045
 40
0.500955780068109
 40
0.7501936061860616
 40
0.8691576721334923
 40
0.9999999999999999
 40
0.9999999999999999
 40
0.9999999999999999
 40
0.9999999999999999
 10
155.9322800487629
 20
100.4873078141817
 30
0.0
 10
155.93847036469
 20
100.5060602427662
 30
0.0
 10
155.9501962092808
 20
100.5415815418198
 30
0.0
 10
155.9866784588159
 20
100.607059440449
 30
0.0
 10
156.0510720888273
 20
100.6746743517261
 30
0.0
 10
156.1321419967293
 20
100.7215021026381
 30
0.0
 10
156.204507301389
 20
100.7401289540758
 30
0.0
 10
156.2416826488084
 20
100.7422132221551
 30
0.0
 10
156.2611541640139
 20
100.7433049095343
 30
0.0
  0
SPLINE
  5
D4
330
1F
100
AcDbEntity
  8
0
  6
Continuous
 62
     7
370
    15
100
AcDbSpline
210
0.0
220
0.0
230
1.0
 70
     8
 71
     3
 72
    12
 73
     8
 74
     0
 42
0.000000001
 43
0.00000001
 40
0.0
 40
0.0
 40
0.0
 40
0.0
 40
0.1256203758549056
 40
0.2509675484986246
 40
0.5009803998090834
 40
0.7502890322367355
 40
1.0
 40
1.0
 40
1.0
 40
1.0
 10
156.2611541640139
 20
100.7433049095343
 30
0.0
 10
156.2754731254198
 20
100.7426741099989
 30
0.0
 10
156.3040799068962
 20
100.7414138828111
 30
0.0
 10
156.3605648622867
 20
100.7320164766956
 30
0.0
 10
156.4273032443038
 20
100.7021100316196
 30
0.0
 10
156.4854482905203
 20
100.635317744801
 30
0.0
 10
156.5021623220949
 20
100.580473744796
 30
0.0
 10
156.5105260757394
 20
100.5530296357629
 30
0.0
  0
SPLINE
  5
D5
330
1F
100
AcDbEntity
  8
0
  6
Continuous
 62
     7
370
    15
100
AcDbSpline
210
0.0
220
0.0
230
1.0
 70
     8
 71
     3
 72
    10
 73
     6
 74
     0
 42
0.000000001
 43
0.00000001
 40
0.0
 40
0.0
 40
0.0
 40
0.0
 40
0.2350451334449108
 40
0.4997135458326522
 40
1.0
 40
1.0
 40
1.0
 40
1.0
 10
156.5105260757394
 20
100.5530296357629
 30
0.0
 10
156.513493498892
 20
100.5359786158173
 30
0.0
 10
156.5198023363644
 20
100.4997275966525
 30
0.0
 10
156.5239146888608
 20
100.4261494894979
 30
0.0
 10
156.5243117705224
 20
100.3698765083165
 30
0.0
 10
156.5245714650289
 20
100.333073539342
 30
0.0
  0
LINE
  5
D6
330
1F
100
AcDbEntity
  8
0
  6
Continuous
 62
     7
370
    15
100
AcDbLine
 10
156.5245714765
 20
99.8783209352
 30
0.0
 11
156.5245714765
 21
100.3330735539
 31
0.0
  0
LINE
  5
D7
330
1F
100
AcDbEntity
  8
0
  6
Continuous
 62
     7
370
    15
100
AcDbLine
 10
156.6432947321
 20
99.8783209352
 30
0.0
 11
156.5245714765
 21
99.8783209352
 31
0.0
  0
LINE
  5
D8
330
1F
100
AcDbEntity
  8
0
  6
Continuous
 62
     7
370
    15
100
AcDbLine
 10
157.0333855662
 20
100.2278656224
 30
0.0
 11
157.0333855662
 21
99.8783209352
 31
0.0
  0
SPLINE
  5
D9
330
1F
100
AcDbEntity
  8
0
  6
Continuous
 62
     7
370
    15
100
AcDbSpline
210
0.0
220
0.0
230
1.0
 70
     8
 71
     3
 72
    10
 73
     6
 74
     0
 42
0.000000001
 43
0.00000001
 40
0.0
 40
0.0
 40
0.0
 40
0.0
 40
0.5001105948863686
 40
0.7501594835573767
 40
1.0
 40
1.0
 40
1.0
 40
1.0
 10
157.033385567593
 20
100.2278656233431
 30
0.0
 10
157.0339039740176
 20
100.2712818895561
 30
0.0
 10
157.0346815770114
 20
100.3364057325089
 30
0.0
 10
157.0397742567461
 20
100.4232341355175
 30
0.0
 10
157.0477065706777
 20
100.4659558572869
 30
0.0
 10
157.0516710744039
 20
100.4873078141817
 30
0.0
  0
SPLINE
  5
DA
330
1F
100
AcDbEntity
  8
0
  6
Continuous
 62
     7
370
    15
100
AcDbSpline
210
0.0
220
0.0
230
1.0
 70
     8
 71
     3
 72
    13
 73
     9
 74
     0
 42
0.000000001
 43
0.00000001
 40
0.0
 40
0.0
 40
0.0
 40
0.0
 40
0.1368676031948207
 40
0.2509503932897792
 40
0.5009518309122883
 40
0.7501964608676027
 40
0.8669352005888336
 40
1.0
 40
1.0
 40
1.0
 40
1.0
 10
157.0516710744039
 20
100.4873078141817
 30
0.0
 10
157.058112144763
 20
100.5066659591495
 30
0.0
 10
157.0699220187002
 20
100.5421596331792
 30
0.0
 10
157.1064872244608
 20
100.6075558781097
 30
0.0
 10
157.1704738906419
 20
100.674656232691
 30
0.0
 10
157.2512301743357
 20
100.7213553964999
 30
0.0
 10
157.3235681752278
 20
100.7400361228492
 30
0.0
 10
157.360742990746
 20
100.742168852042
 30
0.0
 10
157.380545189655
 20
100.7433049095343
 30
0.0
  0
SPLINE
  5
DB
330
1F
100
AcDbEntity
  8
0
  6
Continuous
 62
     7
370
    15
100
AcDbSpline
210
0.0
220
0.0
230
1.0
 70
     8
 71
     3
 72
    13
 73
     9
 74
     0
 42
0.000000001
 43
0.00000001
 40
0.0
 40
0.0
 40
0.0
 40
0.0
 40
0.1255585294056614
 40
0.2508439989370403
 40
0.5007337315983187
 40
0.7499197305860908
 40
0.8748470774117347
 40
1.0
 40
1.0
 40
1.0
 40
1.0
 10
157.380545189655
 20
100.7433049095343
 30
0.0
 10
157.3948651937894
 20
100.7426741764622
 30
0.0
 10
157.4234740594626
 20
100.7414140820122
 30
0.0
 10
157.4799405252237
 20
100.7320146152308
 30
0.0
 10
157.5468274342632
 20
100.7021219356678
 30
0.0
 10
157.5947833403101
 20
100.6463988064674
 30
0.0
 10
157.6180508021876
 20
100.5941939898527
 30
0.0
 10
157.6259592904619
 20
100.566759335935
 30
0.0
 10
157.6299171013804
 20
100.5530296357629
 30
0.0
  0
SPLINE
  5
DC
330
1F
100
AcDbEntity
  8
0
  6
Continuous
 62
     7
370
    15
100
AcDbSpline
210
0.0
220
0.0
230
1.0
 70
     8
 71
     3
 72
    10
 73
     6
 74
     0
 42
0.000000001
 43
0.00000001
 40
0.0
 40
0.0
 40
0.0
 40
0.0
 40
0.2496566585840244
 40
0.4997222377276223
 40
1.0
 40
1.0
 40
1.0
 40
1.0
 10
157.6299171013804
 20
100.5530296357629
 30
0.0
 10
157.633068962582
 20
100.5349158228813
 30
0.0
 10
157.6393778475185
 20
100.4986585279293
 30
0.0
 10
157.6432530415352
 20
100.4250727161899
 30
0.0
 10
157.643678694383
 20
100.3698753670008
 30
0.0
 10
157.6439624906699
 20
100.333073539342
 30
0.0
  0
LINE
  5
DD
330
1F
100
AcDbEntity
  8
0
  6
Continuous
 62
     7
370
    15
100
AcDbLine
 10
157.6439624797
 20
99.8783209352
 30
0.0
 11
157.6439624797
 21
100.3330735539
 31
0.0
  0
LINE
  5
DE
330
1F
100
AcDbEntity
  8
0
  6
Continuous
 62
     7
370
    15
100
AcDbLine
 10
157.7626857934
 20
99.8783209352
 30
0.0
 11
157.6439624797
 21
99.8783209352
 31
0.0
  0
SPLINE
  5
DF
330
1F
100
AcDbEntity
  8
0
  6
Continuous
 62
     7
370
    15
100
AcDbSpline
210
0.0
220
0.0
230
1.0
 70
    24
 71
     3
 72
    10
 73
     6
 74
     0
 42
0.000000001
 43
0.00000001
 40
0.0
 40
0.0
 40
0.0
 40
0.0
 40
0.2500000250319253
 40
0.500000050063844
 40
1.0
 40
1.0
 40
1.0
 40
1.0
 10
157.7626857812682
 20
99.87832093517532
 30
0.0
 10
157.7626857812682
 20
99.91946349780262
 30
0.0
 10
157.7626857812682
 20
100.0017486230572
 30
0.0
 10
157.7626857812682
 20
100.1663186765462
 30
0.0
 10
157.7626857812682
 20
100.2897452453558
 30
0.0
 10
157.7626857812682
 20
100.3720296190696
 30
0.0
  0
SPLINE
  5
E0
330
1F
100
AcDbEntity
  8
0
  6
Continuous
 62
     7
370
    15
100
AcDbSpline
210
0.0
220
0.0
230
1.0
 70
     8
 71
     3
 72
    15
 73
    11
 74
     0
 42
0.000000001
 43
0.00000001
 40
0.0
 40
0.0
 40
0.0
 40
0.0
 40
0.125667725312345
 40
0.2512484672133485
 40
0.3013813456195877
 40
0.3766055600031171
 40
0.501741241248973
 40
0.7500477101514631
 40
0.874801749411491
 40
1.0
 40
1.0
 40
1.0
 40
1.0
 10
157.7626857812682
 20
100.3720296190696
 30
0.0
 10
157.762342679681
 20
100.4010222572075
 30
0.0
 10
157.7616567139912
 20
100.4589874656533
 30
0.0
 10
157.7552460319379
 20
100.5283542704904
 30
0.0
 10
157.7454936260477
 20
100.5854252209827
 30
0.0
 10
157.7318197471196
 20
100.6416989658747
 30
0.0
 10
157.6879030655292
 20
100.7366298319636
 30
0.0
 10
157.5974252833022
 20
100.8172005046567
 30
0.0
 10
157.4879224569663
 20
100.8562272600626
 30
0.0
 10
157.4301522168278
 20
100.8600922638344
 30
0.0
 10
157.4012157625716
 20
100.8620282001326
 30
0.0
  0
SPLINE
  5
E1
330
1F
100
AcDbEntity
  8
0
  6
Continuous
 62
     7
370
    15
100
AcDbSpline
210
0.0
220
0.0
230
1.0
 70
     8
 71
     3
 72
    14
 73
    10
 74
     0
 42
0.000000001
 43
0.00000001
 40
0.0
 40
0.0
 40
0.0
 40
0.0
 40
0.0631092411255447
 40
0.12568247537963
 40
0.2507908649399334
 40
0.4999002351680659
 40
0.7491584968554408
 40
0.8744797853100088
 40
0.9999999999999999
 40
0.9999999999999999
 40
0.9999999999999999
 40
0.9999999999999999
 10
157.4012157625716
 20
100.8620282001326
 30
0.0
 10
157.3921630106931
 20
100.8617427100097
 30
0.0
 10
157.3741343948392
 20
100.8611741545223
 30
0.0
 10
157.3382132344675
 20
100.8586029145486
 30
0.0
 10
157.2763034202344
 20
100.8478933066843
 30
0.0
 10
157.1913422458386
 20
100.8166846963418
 30
0.0
 10
157.1175376219819
 20
100.7641861931112
 30
0.0
 10
157.0673895236922
 20
100.7126855157413
 30
0.0
 10
157.0447262105639
 20
100.6846978349765
 30
0.0
 10
157.033385567593
 20
100.6706928969809
 30
0.0
  0
LINE
  5
E2
330
1F
100
AcDbEntity
  8
0
  6
Continuous
 62
     7
370
    15
100
AcDbLine
 10
157.0333855662
 20
100.8450677027
 30
0.0
 11
157.0333855662
 21
100.6706929174
 31
0.0
  0
LINE
  5
E3
330
1F
100
AcDbEntity
  8
0
  6
Continuous
 62
     7
370
    15
100
AcDbLine
 10
156.9146622815
 20
100.8450677027
 30
0.0
 11
157.0333855662
 21
100.8450677027
 31
0.0
  0
LINE
  5
E4
330
1F
100
AcDbEntity
  8
0
  6
Continuous
 62
     7
370
    15
100
AcDbLine
 10
156.9146622815
 20
99.8783209352
 30
0.0
 11
156.9146622815
 21
100.8450677027
 31
0.0
  0
LINE
  5
E5
330
1F
100
AcDbEntity
  8
0
  6
Continuous
 62
     7
370
    15
100
AcDbLine
 10
157.0333855662
 20
99.8783209352
 30
0.0
 11
156.9146622815
 21
99.8783209352
 31
0.0
  0
SPLINE
  5
E6
330
1F
100
AcDbEntity
  8
0
  6
Continuous
 62
     7
370
    15
100
AcDbSpline
210
0.0
220
0.0
230
1.0
 70
     8
 71
     3
 72
    14
 73
    10
 74
     0
 42
0.000000001
 43
0.00000001
 40
0.0
 40
0.0
 40
0.0
 40
0.0
 40
0.0631830161903314
 40
0.1260220510031003
 40
0.2516071816465544
 40
0.5013666582514248
 40
0.7500682416000819
 40
0.8747698136876719
 40
1.0
 40
1.0
 40
1.0
 40
1.0
 10
158.475025524858
 20
100.2175303368847
 30
0.0
 10
158.4769753698189
 20
100.2049997890497
 30
0.0
 10
158.4808644443825
 20
100.1800069122676
 30
0.0
 10
158.49266926298
 20
100.1308703668605
 30
0.0
 10
158.5231276738543
 20
100.0479791538042
 30
0.0
 10
158.5982581902398
 20
99.94425317391486
 30
0.0
 10
158.7057770909116
 20
99.87390312338187
 30
0.0
 10
158.80331941094
 20
99.84820766121595
 30
0.0
 10
158.8534922388459
 20
99.84567100544616
 30
0.0
 10
158.8786317114231
 20
99.84439999500438
 30
0.0
  0
SPLINE
  5
E7
330
1F
100
AcDbEntity
  8
0
  6
Continuous
 62
     7
370
    15
100
AcDbSpline
210
0.0
220
0.0
230
1.0
 70
     8
 71
     3
 72
    16
 73
    12
 74
     0
 42
0.000000001
 43
0.00000001
 40
0.0
 40
0.0
 40
0.0
 40
0.0
 40
0.0646199865093424
 40
0.1258978973597855
 40
0.2511380539402934
 40
0.3758177131280466
 40
0.5006641386278621
 40
0.6252961472604829
 40
0.7502190813695027
 40
0.8669170900310523
 40
1.0
 40
1.0
 40
1.0
 40
1.0
 10
158.8786317114231
 20
99.84439999500438
 30
0.0
 10
158.8944418648202
 20
99.84482617308313
 30
0.0
 10
158.9252444876178
 20
99.84565648777235
 30
0.0
 10
158.9863072232014
 20
99.85303221306656
 30
0.0
 10
159.0604822602272
 20
99.87248194869468
 30
0.0
 10
159.1426902253741
 20
99.91468896184703
 30
0.0
 10
159.2136751143711
 20
99.97372876865711
 30
0.0
 10
159.2695042248169
 20
100.0471734105905
 30
0.0
 10
159.3097442395794
 20
100.1277940457051
 30
0.0
 10
159.3342119208955
 20
100.2168537975338
 30
0.0
 10
159.3379942694246
 20
100.2779799760475
 30
0.0
 10
159.3400094992169
 20
100.3105479150097
 30
0.0
  0
SPLINE
  5
E8
330
1F
100
AcDbEntity
  8
0
  6
Continuous
 62
     7
370
    15
100
AcDbSpline
210
0.0
220
0.0
230
1.0
 70
     8
 71
     3
 72
    13
 73
     9
 74
     0
 42
0.000000001
 43
0.00000001
 40
0.0
 40
0.0
 40
0.0
 40
0.0
 40
0.1261670423317031
 40
0.2516928260437742
 40
0.5012138986507614
 40
0.7500353525949677
 40
0.8747029978600832
 40
1.0
 40
1.0
 40
1.0
 40
1.0
 10
159.3400094992169
 20
100.3105479150097
 30
0.0
 10
159.3388181280026
 20
100.3387774515693
 30
0.0
 10
159.3364414408564
 20
100.3950930447962
 30
0.0
 10
159.3091297625873
 20
100.5045357924322
 30
0.0
 10
159.2342248094859
 20
100.6270034205231
 30
0.0
 10
159.1158812953073
 20
100.7086479172637
 30
0.0
 10
159.0076405347937
 20
100.7390800013819
 30
0.0
 10
158.9517157538207
 20
100.7418942449315
 30
0.0
 10
158.9236829600877
 20
100.7433049095343
 30
0.0
  0
SPLINE
  5
E9
330
1F
100
AcDbEntity
  8
0
  6
Continuous
 62
     7
370
    15
100
AcDbSpline
210
0.0
220
0.0
230
1.0
 70
     8
 71
     3
 72
    10
 73
     6
 74
     0
 42
0.000000001
 43
0.00000001
 40
0.0
 40
0.0
 40
0.0
 40
0.0
 40
0.4992106548073505
 40
0.7495638253516461
 40
1.0
 40
1.0
 40
1.0
 40
1.0
 10
158.9236829600877
 20
100.7433049095343
 30
0.0
 10
158.8973051421973
 20
100.7418537094163
 30
0.0
 10
158.857698900039
 20
100.7396747352671
 30
0.0
 10
158.8060896340505
 20
100.7281014938186
 30
0.0
 10
158.7806037135362
 20
100.721100349452
 30
0.0
 10
158.7678586411774
 20
100.717599197061
 30
0.0
  0
LWPOLYLINE
  5
EA
330
1F
100
AcDbEntity
  8
0
  6
Continuous
 62
     7
370
    15
100
AcDbPolyline
 90
        9
 70
   128
 43
0.0
 10
158.8391455617
 20
101.0655538402
 10
158.8302349001
 20
101.0220604939
 10
158.8213242385
 20
100.9785667984
 10
158.8124134606
 20
100.93507287
 10
158.8035025662
 20
100.8915785924
 10
158.7945916718
 20
100.8480841401
 10
158.785680661
 20
100.8045893968
 10
158.7767696502
 20
100.7610944207
 10
158.7678586394
 20
100.7175992117
  0
LINE
  5
EB
330
1F
100
AcDbEntity
  8
0
  6
Continuous
 62
     7
370
    15
100
AcDbLine
 10
159.2891280334
 20
101.0655538402
 30
0.0
 11
158.8391455617
 21
101.0655538402
 31
0.0
  0
LINE
  5
EC
330
1F
100
AcDbEntity
  8
0
  6
Continuous
 62
     7
370
    15
100
AcDbLine
 10
159.2891280334
 20
101.2012376441
 30
0.0
 11
159.2891280334
 21
101.0655538402
 31
0.0
  0
LINE
  5
ED
330
1F
100
AcDbEntity
  8
0
  6
Continuous
 62
     7
370
    15
100
AcDbLine
 10
158.746393051
 20
101.2012376441
 30
0.0
 11
159.2891280334
 21
101.2012376441
 31
0.0
  0
LWPOLYLINE
  5
EE
330
1F
100
AcDbEntity
  8
0
  6
Continuous
 62
     7
370
    15
100
AcDbPolyline
 90
        9
 70
   128
 43
0.0
 10
158.6107092472
 20
100.5397792896
 10
158.6276703775
 20
100.6224644943
 10
158.644631275
 20
100.7051490587
 10
158.661592056
 20
100.78783275
 10
158.6785526043
 20
100.8705156846
 10
158.6955130361
 20
100.9531976879
 10
158.7124732351
 20
101.0358786434
 10
158.7294333177
 20
101.1185586676
 10
158.746393051
 20
101.2012376441
  0
SPLINE
  5
EF
330
1F
100
AcDbEntity
  8
0
  6
Continuous
 62
     7
370
    15
100
AcDbSpline
210
0.0
220
0.0
230
1.0
 70
     8
 71
     3
 72
    11
 73
     7
 74
     0
 42
0.000000001
 43
0.00000001
 40
0.0
 40
0.0
 40
0.0
 40
0.0
 40
0.2717186768668845
 40
0.4998405115516004
 40
0.7500209740944161
 40
1.0
 40
1.0
 40
1.0
 40
1.0
 10
158.6107092855417
 20
100.5397792685087
 30
0.0
 10
158.6362250365349
 20
100.5493796051489
 30
0.0
 10
158.6831625756695
 20
100.5670399192378
 30
0.0
 10
158.7553601098018
 20
100.5882216300243
 30
0.0
 10
158.8269669250142
 20
100.6038231858332
 30
0.0
 10
158.877140620827
 20
100.6063555011371
 30
0.0
 10
158.9022173651357
 20
100.6076211488505
 30
0.0
  0
SPLINE
  5
F0
330
1F
100
AcDbEntity
  8
0
  6
Continuous
 62
     7
370
    15
100
AcDbSpline
210
0.0
220
0.0
230
1.0
 70
     8
 71
     3
 72
    13
 73
     9
 74
     0
 42
0.000000001
 43
0.00000001
 40
0.0
 40
0.0
 40
0.0
 40
0.0
 40
0.1262535687249921
 40
0.2520704547168076
 40
0.50205936165234
 40
0.75086159266044
 40
0.8674605187831181
 40
1.0
 40
1.0
 40
1.0
 40
1.0
 10
158.9022173651357
 20
100.6076211488505
 30
0.0
 10
158.9226351039324
 20
100.6068774950037
 30
0.0
 10
158.9633999611539
 20
100.6053927594417
 30
0.0
 10
159.0430983475502
 20
100.5882351468702
 30
0.0
 10
159.1344898796644
 20
100.5388332666924
 30
0.0
 10
159.1954574617397
 20
100.4553267975712
 30
0.0
 10
159.2175941192465
 20
100.3772997914067
 30
0.0
 10
159.2200041128393
 20
100.3370144880564
 30
0.0
 10
159.2212862086186
 20
100.3155830545663
 30
0.0
  0
SPLINE
  5
F1
330
1F
100
AcDbEntity
  8
0
  6
Continuous
 62
     7
370
    15
100
AcDbSpline
210
0.0
220
0.0
230
1.0
 70
     8
 71
     3
 72
    15
 73
    11
 74
     0
 42
0.000000001
 43
0.00000001
 40
0.0
 40
0.0
 40
0.0
 40
0.0
 40
0.063141408025542
 40
0.1261451967288047
 40
0.2512398144653138
 40
0.5000388352134665
 40
0.6249308993351049
 40
0.7499359271490508
 40
0.8692652732847048
 40
1.0
 40
1.0
 40
1.0
 40
1.0
 10
159.2212862086186
 20
100.3155830545663
 30
0.0
 10
159.2209262045285
 20
100.3044822569949
 30
0.0
 10
159.2202069809919
 20
100.2823048565015
 30
0.0
 10
159.214984845923
 20
100.238355785175
 30
0.0
 10
159.1934113506235
 20
100.1640334285716
 30
0.0
 10
159.1420855869253
 20
100.0894650935557
 30
0.0
 10
159.0738545317124
 20
100.0338873177627
 30
0.0
 10
159.0165138560384
 20
100.0024327393897
 30
0.0
 10
158.9524919669579
 20
99.98423418583089
 30
0.0
 10
158.9085138684905
 20
99.9815086691886
 30
0.0
 10
158.8855219023954
 20
99.98008375568813
 30
0.0
  0
SPLINE
  5
F2
330
1F
100
AcDbEntity
  8
0
  6
Continuous
 62
     7
370
    15
100
AcDbSpline
210
0.0
220
0.0
230
1.0
 70
     8
 71
     3
 72
    14
 73
    10
 74
     0
 42
0.000000001
 43
0.00000001
 40
0.0
 40
0.0
 40
0.0
 40
0.0
 40
0.1323763151253499
 40
0.2497628029802495
 40
0.3751984708665143
 40
0.5008068942449903
 40
0.6263510570646639
 40
0.7511321738843887
 40
0.9999999999999999
 40
0.9999999999999999
 40
0.9999999999999999
 40
0.9999999999999999
 10
158.8855219023954
 20
99.98008375568813
 30
0.0
 10
158.8674716026033
 20
99.98122102884298
 30
0.0
 10
158.8334149553365
 20
99.98336679434972
 30
0.0
 10
158.7834113457129
 20
99.99561128315226
 30
0.0
 10
158.7371542803766
 20
100.0157478510791
 30
0.0
 10
158.6933811463514
 20
100.0431564294137
 30
0.0
 10
158.6558342754934
 20
100.0784938194229
 30
0.0
 10
158.6156708821316
 20
100.1344615413545
 30
0.0
 10
158.6025127513833
 20
100.1843213510559
 30
0.0
 10
158.5937488154562
 20
100.2175303368847
 30
0.0
  0
LINE
  5
F3
330
1F
100
AcDbEntity
  8
0
  6
Continuous
 62
     7
370
    15
100
AcDbLine
 10
158.4750255598
 20
100.2175303283
 30
0.0
 11
158.5937488154
 21
100.2175303283
 31
0.0
  0
LWPOLYLINE
  5
F4
330
1F
100
AcDbEntity
  8
0
  6
Continuous
 62
     7
370
    15
100
AcDbPolyline
 90
        9
 70
   128
 43
0.0
 10
159.4756932491
 20
100.1836094065
 10
159.5659714686
 20
100.3150678289
 10
159.6562473597
 20
100.4465227588
 10
159.7465206897
 20
100.5779737597
 10
159.8367909929
 20
100.7094205697
 10
159.9270580364
 20
100.8408628395
 10
160.0173218204
 20
100.9723001616
 10
160.1075821118
 20
101.1037321286
 10
160.1978382124
 20
101.2351585077
  0
LINE
  5
F5
330
1F
100
AcDbEntity
  8
0
  6
Continuous
 62
     7
370
    15
100
AcDbLine
 10
160.1032307399
 20
100.1836094065
 30
0.0
 11
159.4756932491
 21
100.1836094065
 31
0.0
  0
LINE
  5
F6
330
1F
100
AcDbEntity
  8
0
  6
Continuous
 62
     7
370
    15
100
AcDbLine
 10
160.1032307399
 20
99.8783209352
 30
0.0
 11
160.1032307399
 21
100.1836094065
 31
0.0
  0
LINE
  5
F7
330
1F
100
AcDbEntity
  8
0
  6
Continuous
 62
     7
370
    15
100
AcDbLine
 10
160.2219538791
 20
99.8783209352
 30
0.0
 11
160.1032307399
 21
99.8783209352
 31
0.0
  0
LINE
  5
F8
330
1F
100
AcDbEntity
  8
0
  6
Continuous
 62
     7
370
    15
100
AcDbLine
 10
160.2219538791
 20
100.1836094065
 30
0.0
 11
160.2219538791
 21
99.8783209352
 31
0.0
  0
LINE
  5
F9
330
1F
100
AcDbEntity
  8
0
  6
Continuous
 62
     7
370
    15
100
AcDbLine
 10
160.3745981147
 20
100.1836094065
 30
0.0
 11
160.2219538791
 21
100.1836094065
 31
0.0
  0
LINE
  5
FA
330
1F
100
AcDbEntity
  8
0
  6
Continuous
 62
     7
370
    15
100
AcDbLine
 10
160.3745981147
 20
100.3192931521
 30
0.0
 11
160.3745981147
 21
100.1836094065
 31
0.0
  0
LINE
  5
FB
330
1F
100
AcDbEntity
  8
0
  6
Continuous
 62
     7
370
    15
100
AcDbLine
 10
160.2219538791
 20
100.3192931521
 30
0.0
 11
160.3745981147
 21
100.3192931521
 31
0.0
  0
SPLINE
  5
FC
330
1F
100
AcDbEntity
  8
0
  6
Continuous
 62
     7
370
    15
100
AcDbSpline
210
0.0
220
0.0
230
1.0
 70
    24
 71
     3
 72
     9
 73
     5
 74
     0
 42
0.000000001
 43
0.00000001
 40
0.0
 40
0.0
 40
0.0
 40
0.0
 40
0.500000000000005
 40
1.0
 40
1.0
 40
1.0
 40
1.0
 10
160.2219539436614
 20
100.3192931573975
 30
0.0
 10
160.2219539436614
 20
100.4719423485157
 30
0.0
 10
160.2219539436614
 20
100.7772407307521
 30
0.0
 10
160.2219539436614
 20
101.0825192715926
 30
0.0
 10
160.2219539436614
 20
101.2351585420129
 30
0.0
  0
LINE
  5
FD
330
1F
100
AcDbEntity
  8
0
  6
Continuous
 62
     7
370
    15
100
AcDbLine
 10
160.1978382124
 20
101.2351585077
 30
0.0
 11
160.2219538791
 21
101.2351585077
 31
0.0
  0
LINE
  5
FE
330
1F
100
AcDbEntity
  8
0
  6
Continuous
 62
     7
370
    15
100
AcDbLine
 10
163.5462061996
 20
100.4549768977
 30
0.0
 11
164.0550203184
 21
100.4549768977
 31
0.0
  0
LINE
  5
FF
330
1F
100
AcDbEntity
  8
0
  6
Continuous
 62
     7
370
    15
100
AcDbLine
 10
163.5462061996
 20
100.3192931521
 30
0.0
 11
163.5462061996
 21
100.4549768977
 31
0.0
  0
LINE
  5
100
330
1F
100
AcDbEntity
  8
0
  6
Continuous
 62
     7
370
    15
100
AcDbLine
 10
164.0550203184
 20
100.3192931521
 30
0.0
 11
163.5462061996
 21
100.3192931521
 31
0.0
  0
LINE
  5
101
330
1F
100
AcDbEntity
  8
0
  6
Continuous
 62
     7
370
    15
100
AcDbLine
 10
164.0550203184
 20
100.4549768977
 30
0.0
 11
164.0550203184
 21
100.3192931521
 31
0.0
  0
SPLINE
  5
102
330
1F
100
AcDbEntity
  8
0
  6
Continuous
 62
     7
370
    15
100
AcDbSpline
210
0.0
220
0.0
230
1.0
 70
     8
 71
     3
 72
    13
 73
     9
 74
     0
 42
0.000000001
 43
0.00000001
 40
0.0
 40
0.0
 40
0.0
 40
0.0
 40
0.1257428028982236
 40
0.2509754852218459
 40
0.500500895745928
 40
0.7497170358962625
 40
0.8695172433208022
 40
1.0
 40
1.0
 40
1.0
 40
1.0
 10
164.139822533405
 20
100.1335230084926
 30
0.0
 10
164.1505134588346
 20
100.1143649761931
 30
0.0
 10
164.1718519381377
 20
100.0761266329923
 30
0.0
 10
164.2208099349841
 20
100.0038506485741
 30
0.0
 10
164.2945544695051
 20
99.92218488028877
 30
0.0
 10
164.3909658278364
 20
99.86890496253908
 30
0.0
 10
164.4758239819302
 20
99.84805566437977
 30
0.0
 10
164.5193906141123
 20
99.84565273859859
 30
0.0
 10
164.5421036832447
 20
99.84439999500437
 30
0.0
  0
SPLINE
  5
103
330
1F
100
AcDbEntity
  8
0
  6
Continuous
 62
     7
370
    15
100
AcDbSpline
210
0.0
220
0.0
230
1.0
 70
     8
 71
     3
 72
    14
 73
    10
 74
     0
 42
0.000000001
 43
0.00000001
 40
0.0
 40
0.0
 40
0.0
 40
0.0
 40
0.063191508602849
 40
0.1260466265817332
 40
0.2513657582018407
 40
0.5005796232764058
 40
0.7500681477563266
 40
0.8748032653386878
 40
1.0
 40
1.0
 40
1.0
 40
1.0
 10
164.5421036832447
 20
99.84439999500437
 30
0.0
 10
164.5542253567058
 20
99.84469548380703
 30
0.0
 10
164.5784041756971
 20
99.84528488842153
 30
0.0
 10
164.6263030124248
 20
99.85130167279507
 30
0.0
 10
164.707864334694
 20
99.87328496548328
 30
0.0
 10
164.8106228658482
 20
99.94038574105473
 30
0.0
 10
164.8848471359712
 20
100.0380658223379
 30
0.0
 10
164.9157095573334
 20
100.1301646320117
 30
0.0
 10
164.9185708624189
 20
100.1783085160154
 30
0.0
 10
164.9200041573366
 20
100.2024249182148
 30
0.0
  0
SPLINE
  5
104
330
1F
100
AcDbEntity
  8
0
  6
Continuous
 62
     7
370
    15
100
AcDbSpline
210
0.0
220
0.0
230
1.0
 70
     8
 71
     3
 72
    14
 73
    10
 74
     0
 42
0.000000001
 43
0.00000001
 40
0.0
 40
0.0
 40
0.0
 40
0.0
 40
0.1296318900383731
 40
0.2486260605228205
 40
0.3701683382223077
 40
0.4982491788378421
 40
0.748975116672922
 40
0.8744658966141318
 40
1.0
 40
1.0
 40
1.0
 40
1.0
 10
164.9200041573366
 20
100.2024249182148
 30
0.0
 10
164.9178431430481
 20
100.2261295826515
 30
0.0
 10
164.9136984494152
 20
100.2715936836003
 30
0.0
 10
164.892406123482
 20
100.3365390234759
 30
0.0
 10
164.8599406636974
 20
100.3960097105194
 30
0.0
 10
164.8039037925337
 20
100.4687899020571
 30
0.0
 10
164.7357016324749
 20
100.5315709686721
 30
0.0
 10
164.6639756128928
 20
100.5887470449397
 30
0.0
 10
164.6268976836887
 20
100.6158152918758
 30
0.0
 10
164.6083555195161
 20
100.6293517511475
 30
0.0
  0
SPLINE
  5
105
330
1F
100
AcDbEntity
  8
0
  6
Continuous
 62
     7
370
    15
100
AcDbSpline
210
0.0
220
0.0
230
1.0
 70
     8
 71
     3
 72
    10
 73
     6
 74
     0
 42
0.000000001
 43
0.00000001
 40
0.0
 40
0.0
 40
0.0
 40
0.0
 40
0.5000254533719746
 40
0.8003096373690117
 40
0.9999999999999999
 40
0.9999999999999999
 40
0.9999999999999999
 40
0.9999999999999999
 10
164.6083555195161
 20
100.6293517511475
 30
0.0
 10
164.5783334873658
 20
100.6507788924346
 30
0.0
 10
164.5302820901795
 20
100.6850738419369
 30
0.0
 10
164.4703998146162
 20
100.7282315165534
 30
0.0
 10
164.4419131821103
 20
100.7516907564378
 30
0.0
 10
164.4305355909637
 20
100.761060401655
 30
0.0
  0
SPLINE
  5
106
330
1F
100
AcDbEntity
  8
0
  6
Continuous
 62
     7
370
    15
100
AcDbSpline
210
0.0
220
0.0
230
1.0
 70
     8
 71
     3
 72
    11
 73
     7
 74
     0
 42
0.000000001
 43
0.00000001
 40
0.0
 40
0.0
 40
0.0
 40
0.0
 40
0.2513569861796699
 40
0.5014233074494385
 40
0.7465710898474344
 40
1.0
 40
1.0
 40
1.0
 40
1.0
 10
164.4305355909637
 20
100.761060401655
 30
0.0
 10
164.418778363723
 20
100.7727107361199
 30
0.0
 10
164.3953242801144
 20
100.7959515830487
 30
0.0
 10
164.3665918828689
 20
100.8361616787056
 30
0.0
 10
164.3474803022364
 20
100.8824014316164
 30
0.0
 10
164.3447407181067
 20
100.9152785454883
 30
0.0
 10
164.3433481744306
 20
100.9319901392352
 30
0.0
  0
SPLINE
  5
107
330
1F
100
AcDbEntity
  8
0
  6
Continuous
 62
     7
370
    15
100
AcDbSpline
210
0.0
220
0.0
230
1.0
 70
     8
 71
     3
 72
    13
 73
     9
 74
     0
 42
0.000000001
 43
0.00000001
 40
0.0
 40
0.0
 40
0.0
 40
0.0
 40
0.0633458088975698
 40
0.1261817214983675
 40
0.2515465795743481
 40
0.5012108877999645
 40
0.7504177250986034
 40
1.0
 40
1.0
 40
1.0
 40
1.0
 10
164.3433481744306
 20
100.9319901392352
 30
0.0
 10
164.3436733497249
 20
100.9380112790761
 30
0.0
 10
164.3443210828446
 20
100.9500050921434
 30
0.0
 10
164.3478882522932
 20
100.9737102549181
 30
0.0
 10
164.3614434758393
 20
101.0135803111099
 30
0.0
 10
164.4011696802899
 20
101.0602925051552
 30
0.0
 10
164.4659086961571
 20
101.0942376888675
 30
0.0
 10
164.5135133221044
 20
101.0977282080729
 30
0.0
 10
164.5373335510332
 20
101.0994747813292
 30
0.0
  0
SPLINE
  5
108
330
1F
100
AcDbEntity
  8
0
  6
Continuous
 62
     7
370
    15
100
AcDbSpline
210
0.0
220
0.0
230
1.0
 70
     8
 71
     3
 72
    12
 73
     8
 74
     0
 42
0.000000001
 43
0.00000001
 40
0.0
 40
0.0
 40
0.0
 40
0.0
 40
0.1334172882587542
 40
0.249305078436815
 40
0.4979089197845949
 40
0.7487286647211858
 40
1.0
 40
1.0
 40
1.0
 40
1.0
 10
164.5373335510332
 20
101.0994747813292
 30
0.0
 10
164.5516030981015
 20
101.0985433198952
 30
0.0
 10
164.578267337778
 20
101.0968027803529
 30
0.0
 10
164.6303997340628
 20
101.0843721036465
 30
0.0
 10
164.6889078457467
 20
101.0509533126079
 30
0.0
 10
164.7453614349577
 20
100.9930291352481
 30
0.0
 10
164.7789208919739
 20
100.9509357186076
 30
0.0
 10
164.7957157124915
 20
100.9298700804745
 30
0.0
  0
LWPOLYLINE
  5
109
330
1F
100
AcDbEntity
  8
0
  6
Continuous
 62
     7
370
    15
100
AcDbPolyline
 90
        9
 70
   128
 43
0.0
 10
164.9030435393
 20
101.0112273497
 10
164.8896283032
 20
101.0010581221
 10
164.8762126015
 20
100.9908887781
 10
164.8627968999
 20
100.9807193177
 10
164.8493807325
 20
100.9705496244
 10
164.8359650308
 20
100.9603799311
 10
164.8225488635
 20
100.9502101215
 10
164.8091322305
 20
100.9400401954
 10
164.7957155975
 20
100.9298700364
  0
SPLINE
  5
10A
330
1F
100
AcDbEntity
  8
0
  6
Continuous
 62
     7
370
    15
100
AcDbSpline
210
0.0
220
0.0
230
1.0
 70
     8
 71
     3
 72
    13
 73
     9
 74
     0
 42
0.000000001
 43
0.00000001
 40
0.0
 40
0.0
 40
0.0
 40
0.0
 40
0.25151341051314
 40
0.3769822582171402
 40
0.5023336486264773
 40
0.750668227847146
 40
0.8715395308169027
 40
1.0
 40
1.0
 40
1.0
 40
1.0
 10
164.9030436872511
 20
101.0112273354157
 30
0.0
 10
164.8809698757124
 20
101.0403618188803
 30
0.0
 10
164.8478844219215
 20
101.0840301996083
 30
0.0
 10
164.7970411299323
 20
101.1364661191692
 30
0.0
 10
164.7412643470228
 20
101.1828594121335
 30
0.0
 10
164.6759272357796
 20
101.2157692841741
 30
0.0
 10
164.6052701177567
 20
101.2315752534443
 30
0.0
 10
164.5691788338866
 20
101.2339401185506
 30
0.0
 10
164.5505839182875
 20
101.2351585420129
 30
0.0
  0
SPLINE
  5
10B
330
1F
100
AcDbEntity
  8
0
  6
Continuous
 62
     7
370
    15
100
AcDbSpline
210
0.0
220
0.0
230
1.0
 70
     8
 71
     3
 72
    15
 73
    11
 74
     0
 42
0.000000001
 43
0.00000001
 40
0.0
 40
0.0
 40
0.0
 40
0.0
 40
0.1254971849196018
 40
0.2505184737700965
 40
0.3754999968423252
 40
0.5005450589573484
 40
0.6251753793643411
 40
0.7502053143153895
 40
0.8747919909174001
 40
1.0
 40
1.0
 40
1.0
 40
1.0
 10
164.5505839182875
 20
101.2351585420129
 30
0.0
 10
164.5296544545727
 20
101.2341602108468
 30
0.0
 10
164.4878748934613
 20
101.2321673342719
 30
0.0
 10
164.4270437684841
 20
101.2155500888374
 30
0.0
 10
164.3703801360316
 20
101.1885977525237
 30
0.0
 10
164.3194384184335
 20
101.1516757101935
 30
0.0
 10
164.2780207326752
 20
101.1042488846196
 30
0.0
 10
164.2468495432001
 20
101.0496388692681
 30
0.0
 10
164.2287428186963
 20
100.9890518426001
 30
0.0
 10
164.2259998030877
 20
100.9473351924778
 30
0.0
 10
164.2246248838323
 20
100.9264249849884
 30
0.0
  0
SPLINE
  5
10C
330
1F
100
AcDbEntity
  8
0
  6
Continuous
 62
     7
370
    15
100
AcDbSpline
210
0.0
220
0.0
230
1.0
 70
     8
 71
     3
 72
    11
 73
     7
 74
     0
 42
0.000000001
 43
0.00000001
 40
0.0
 40
0.0
 40
0.0
 40
0.0
 40
0.25086142682282
 40
0.4998266429302102
 40
0.7489110142635053
 40
1.0
 40
1.0
 40
1.0
 40
1.0
 10
164.2246248838323
 20
100.9264249849884
 30
0.0
 10
164.2254838382197
 20
100.9081047388237
 30
0.0
 10
164.2271952543321
 20
100.8716027255245
 30
0.0
 10
164.2427107190424
 20
100.8188314686631
 30
0.0
 10
164.266083789717
 20
100.7691969711356
 30
0.0
 10
164.2877069978658
 20
100.7397845522762
 30
0.0
 10
164.2985619331112
 20
100.7250194027234
 30
0.0
  0
SPLINE
  5
10D
330
1F
100
AcDbEntity
  8
0
  6
Continuous
 62
     7
370
    15
100
AcDbSpline
210
0.0
220
0.0
230
1.0
 70
     8
 71
     3
 72
    12
 73
     8
 74
     0
 42
0.000000001
 43
0.00000001
 40
0.0
 40
0.0
 40
0.0
 40
0.0
 40
0.1214520704834906
 40
0.2497068111819573
 40
0.499747223457051
 40
0.7498786338251858
 40
1.0
 40
1.0
 40
1.0
 40
1.0
 10
164.2985619331112
 20
100.7250194027234
 30
0.0
 10
164.3061198395549
 20
100.7164287888234
 30
0.0
 10
164.3216589794787
 20
100.6987663908542
 30
0.0
 10
164.3561813255936
 20
100.6667211651655
 30
0.0
 10
164.4020503053732
 20
100.6293622926841
 30
0.0
 10
164.4579536456327
 20
100.5862183328508
 30
0.0
 10
164.4962100988457
 20
100.5587922043344
 30
0.0
 10
164.5153379413911
 20
100.5450794154104
 30
0.0
  0
SPLINE
  5
10E
330
1F
100
AcDbEntity
  8
0
  6
Continuous
 62
     7
370
    15
100
AcDbSpline
210
0.0
220
0.0
230
1.0
 70
     8
 71
     3
 72
    12
 73
     8
 74
     0
 42
0.000000001
 43
0.00000001
 40
0.0
 40
0.0
 40
0.0
 40
0.0
 40
0.2500183943235023
 40
0.4999560299885834
 40
0.7500355309329835
 40
0.8753353914408071
 40
1.0
 40
1.0
 40
1.0
 40
1.0
 10
164.5153379413911
 20
100.5450794154104
 30
0.0
 10
164.536891519862
 20
100.5294542056702
 30
0.0
 10
164.5799917147638
 20
100.4982088333024
 30
0.0
 10
164.6423545418947
 20
100.4482784456314
 30
0.0
 10
164.6920204589655
 20
100.4038203622175
 30
0.0
 10
164.728765244175
 20
100.3651951347944
 30
0.0
 10
164.7454989582176
 20
100.344469867229
 30
0.0
 10
164.753844551968
 20
100.3341335687223
 30
0.0
  0
SPLINE
  5
10F
330
1F
100
AcDbEntity
  8
0
  6
Continuous
 62
     7
370
    15
100
AcDbSpline
210
0.0
220
0.0
230
1.0
 70
     8
 71
     3
 72
    11
 73
     7
 74
     0
 42
0.000000001
 43
0.00000001
 40
0.0
 40
0.0
 40
0.0
 40
0.0
 40
0.2505448144873187
 40
0.5000340526733742
 40
0.7490325956716579
 40
1.0
 40
1.0
 40
1.0
 40
1.0
 10
164.753844551968
 20
100.3341335687223
 30
0.0
 10
164.7605052618208
 20
100.3244561232729
 30
0.0
 10
164.7737986191317
 20
100.3051420046489
 30
0.0
 10
164.7890751568511
 20
100.2734157008933
 30
0.0
 10
164.7993840104232
 20
100.2395364599177
 30
0.0
 10
164.8006469235199
 20
100.2160629458874
 30
0.0
 10
164.8012808667383
 20
100.2042799696304
 30
0.0
  0
SPLINE
  5
110
330
1F
100
AcDbEntity
  8
0
  6
Continuous
 62
     7
370
    15
100
AcDbSpline
210
0.0
220
0.0
230
1.0
 70
     8
 71
     3
 72
    15
 73
    11
 74
     0
 42
0.000000001
 43
0.00000001
 40
0.0
 40
0.0
 40
0.0
 40
0.0
 40
0.0631149903874617
 40
0.1259585984473612
 40
0.2513110262383607
 40
0.500157370149077
 40
0.6433674683862893
 40
0.7859551858775483
 40
0.8890962621679609
 40
1.0
 40
1.0
 40
1.0
 40
1.0
 10
164.8012808667383
 20
100.2042799696304
 30
0.0
 10
164.8009130249816
 20
100.196280134846
 30
0.0
 10
164.8001789231172
 20
100.1803148630292
 30
0.0
 10
164.7946859542692
 20
100.1488295197353
 30
0.0
 10
164.7752163864104
 20
100.0965209435604
 30
0.0
 10
164.7321182297469
 20
100.0439072210045
 30
0.0
 10
164.6737817946241
 20
100.0088555134776
 30
0.0
 10
164.6275684485191
 20
99.99120282292365
 30
0.0
 10
164.5831667007591
 20
99.98238755651815
 30
0.0
 10
164.5561183391083
 20
99.98087003438282
 30
0.0
 10
164.5421036832447
 20
99.98008375568813
 30
0.0
  0
SPLINE
  5
111
330
1F
100
AcDbEntity
  8
0
  6
Continuous
 62
     7
370
    15
100
AcDbSpline
210
0.0
220
0.0
230
1.0
 70
     8
 71
     3
 72
    14
 73
    10
 74
     0
 42
0.000000001
 43
0.00000001
 40
0.0
 40
0.0
 40
0.0
 40
0.0
 40
0.0635604174335077
 40
0.1266447650731308
 40
0.2520231184209201
 40
0.5002974876658035
 40
0.7493602143430196
 40
0.8746273586092651
 40
1.0
 40
1.0
 40
1.0
 40
1.0
 10
164.5421036832447
 20
99.98008375568813
 30
0.0
 10
164.5340258156649
 20
99.98046691035378
 30
0.0
 10
164.5179305840216
 20
99.98123034984297
 30
0.0
 10
164.4860805580128
 20
99.98542387475496
 30
0.0
 10
164.4327433294675
 20
100.0025995119793
 30
0.0
 10
164.3656770349905
 20
100.0474368550619
 30
0.0
 10
164.3124288051663
 20
100.1069402118787
 30
0.0
 10
164.2763379808299
 20
100.1594690696289
 30
0.0
 10
164.2598853906578
 20
100.1868657572171
 30
0.0
 10
164.251655633031
 20
100.2005698667992
 30
0.0
  0
LWPOLYLINE
  5
112
330
1F
100
AcDbEntity
  8
0
  6
Continuous
 62
     7
370
    15
100
AcDbPolyline
 90
        9
 70
   128
 43
0.0
 10
164.1398223611
 20
100.1335229948
 10
164.1538019786
 20
100.1419041704
 10
164.1677815961
 20
100.1502852295
 10
164.1817612136
 20
100.1586662305
 10
164.1957403654
 20
100.1670471441
 10
164.2097195173
 20
100.1754279414
 10
164.2236982034
 20
100.1838086804
 10
164.2376768896
 20
100.192189303
 10
164.2516555758
 20
100.2005698674
  0
LINE
  5
113
330
1F
100
AcDbEntity
  8
0
  6
Continuous
 62
     7
370
    15
100
AcDbLine
 10
165.4457782889
 20
101.0655538402
 30
0.0
 11
165.4457782889
 21
99.8783209352
 31
0.0
  0
LINE
  5
114
330
1F
100
AcDbEntity
  8
0
  6
Continuous
 62
     7
370
    15
100
AcDbLine
 10
165.7341064447
 20
101.0655538402
 30
0.0
 11
165.4457782889
 21
101.0655538402
 31
0.0
  0
LINE
  5
115
330
1F
100
AcDbEntity
  8
0
  6
Continuous
 62
     7
370
    15
100
AcDbLine
 10
165.7341064447
 20
101.2012376441
 30
0.0
 11
165.7341064447
 21
101.0655538402
 31
0.0
  0
LINE
  5
116
330
1F
100
AcDbEntity
  8
0
  6
Continuous
 62
     7
370
    15
100
AcDbLine
 10
165.0387274595
 20
101.2012376441
 30
0.0
 11
165.7341064447
 21
101.2012376441
 31
0.0
  0
LINE
  5
117
330
1F
100
AcDbEntity
  8
0
  6
Continuous
 62
     7
370
    15
100
AcDbLine
 10
165.0387274595
 20
101.0655538402
 30
0.0
 11
165.0387274595
 21
101.2012376441
 31
0.0
  0
LINE
  5
118
330
1F
100
AcDbEntity
  8
0
  6
Continuous
 62
     7
370
    15
100
AcDbLine
 10
165.3270551497
 20
101.0655538402
 30
0.0
 11
165.0387274595
 21
101.0655538402
 31
0.0
  0
LINE
  5
119
330
1F
100
AcDbEntity
  8
0
  6
Continuous
 62
     7
370
    15
100
AcDbLine
 10
165.3270551497
 20
99.8783209352
 30
0.0
 11
165.3270551497
 21
101.0655538402
 31
0.0
  0
LINE
  5
11A
330
1F
100
AcDbEntity
  8
0
  6
Continuous
 62
     7
370
    15
100
AcDbLine
 10
165.4457782889
 20
99.8783209352
 30
0.0
 11
165.3270551497
 21
99.8783209352
 31
0.0
  0
CIRCLE
  5
11B
330
1F
100
AcDbEntity
  8
0
  6
Continuous
 62
     7
370
    15
100
AcDbCircle
 10
157.3810752043
 20
99.8783209352
 30
0.0
 40
37.50333318519847
  0
SPLINE
  5
11C
330
1F
100
AcDbEntity
  8
0
  6
Continuous
 62
     7
370
    15
100
AcDbSpline
210
0.0
220
0.0
230
1.0
 70
     8
 71
     3
 72
     9
 73
     5
 74
     0
 42
0.000000001
 43
0.00000001
 40
0.0
 40
0.0
 40
0.0
 40
0.0
 40
0.5084695120090763
 40
1.0
 40
1.0
 40
1.0
 40
1.0
 10
163.1391547983623
 20
101.2351585420129
 30
0.0
 10
163.0722401406798
 20
101.1328493275109
 30
0.0
 10
162.9406400032045
 20
100.9316392016612
 30
0.0
 10
162.8089992820791
 20
100.7303912927718
 30
0.0
 10
162.7442938541849
 20
100.6314718099082
 30
0.0
  0
SPLINE
  5
11D
330
1F
100
AcDbEntity
  8
0
  6
Continuous
 62
     7
370
    15
100
AcDbSpline
210
0.0
220
0.0
230
1.0
 70
     8
 71
     3
 72
    12
 73
     8
 74
     0
 42
0.000000001
 43
0.00000001
 40
0.0
 40
0.0
 40
0.0
 40
0.0
 40
0.270048080836556
 40
0.5003410328770714
 40
0.7503167758645648
 40
0.8660169400821948
 40
0.9999999999999999
 40
0.9999999999999999
 40
0.9999999999999999
 40
0.9999999999999999
 10
162.7442938541849
 20
100.6314718099082
 30
0.0
 10
162.7239175040946
 20
100.5998744742091
 30
0.0
 10
162.6861645083361
 20
100.5413314046533
 30
0.0
 10
162.6385483143699
 20
100.4481706921889
 30
0.0
 10
162.611279846922
 20
100.3692809702482
 30
0.0
 10
162.5991738609922
 20
100.300608552059
 30
0.0
 10
162.5973815379872
 20
100.2658584745043
 30
0.0
 10
162.5964197556272
 20
100.2472111595343
 30
0.0
  0
SPLINE
  5
11E
330
1F
100
AcDbEntity
  8
0
  6
Continuous
 62
     7
370
    15
100
AcDbSpline
210
0.0
220
0.0
230
1.0
 70
     8
 71
     3
 72
    16
 73
    12
 74
     0
 42
0.000000001
 43
0.00000001
 40
0.0
 40
0.0
 40
0.0
 40
0.0
 40
0.062946787393363
 40
0.1256966296227902
 40
0.2507867217220879
 40
0.3756545612706503
 40
0.5007740551650554
 40
0.6254497048475788
 40
0.7504862029295932
 40
0.8749895939338024
 40
1.0
 40
1.0
 40
1.0
 40
1.0
 10
162.5964197556272
 20
100.2472111595343
 30
0.0
 10
162.5968522432708
 20
100.2339400202883
 30
0.0
 10
162.5977158654095
 20
100.2074392639581
 30
0.0
 10
162.6047185133523
 20
100.1549238370568
 30
0.0
 10
162.6239848496309
 20
100.0913624937501
 30
0.0
 10
162.6606357709921
 20
100.0208741789807
 30
0.0
 10
162.7097129023185
 20
99.95825509569173
 30
0.0
 10
162.7716792036393
 20
99.90833724198295
 30
0.0
 10
162.8417642265026
 20
99.87130919800224
 30
0.0
 10
162.918269970091
 20
99.84940974065489
 30
0.0
 10
162.9707949871374
 20
99.84607217088197
 30
0.0
 10
162.9971108613964
 20
99.84439999500438
 30
0.0
  0
SPLINE
  5
11F
330
1F
100
AcDbEntity
  8
0
  6
Continuous
 62
     7
370
    15
100
AcDbSpline
210
0.0
220
0.0
230
1.0
 70
     8
 71
     3
 72
    16
 73
    12
 74
     0
 42
0.000000001
 43
0.00000001
 40
0.0
 40
0.0
 40
0.0
 40
0.0
 40
0.0631086932789357
 40
0.1260518082670234
 40
0.2513037726830284
 40
0.3764080018152866
 40
0.5017333532624223
 40
0.6262466996397916
 40
0.7510065254932198
 40
0.8751887960303109
 40
1.0
 40
1.0
 40
1.0
 40
1.0
 10
162.9971108613964
 20
99.84439999500438
 30
0.0
 10
163.0106555942303
 20
99.84492218347083
 30
0.0
 10
163.0377095225797
 20
99.84596519033775
 30
0.0
 10
163.0913564589735
 20
99.85260638888415
 30
0.0
 10
163.1563261988594
 20
99.87189216450822
 30
0.0
 10
163.2287346393902
 20
99.90835360905253
 30
0.0
 10
163.2931306071413
 20
99.95772108882471
 30
0.0
 10
163.3452605168096
 20
100.0198773781279
 30
0.0
 10
163.3835325829343
 20
100.0911026577191
 30
0.0
 10
163.405488625271
 20
100.1692020089289
 30
0.0
 10
163.4088415984815
 20
100.2227530651403
 30
0.0
 10
163.4105223197298
 20
100.2495962256401
 30
0.0
  0
SPLINE
  5
120
330
1F
100
AcDbEntity
  8
0
  6
Continuous
 62
     7
370
    15
100
AcDbSpline
210
0.0
220
0.0
230
1.0
 70
     8
 71
     3
 72
    14
 73
    10
 74
     0
 42
0.000000001
 43
0.00000001
 40
0.0
 40
0.0
 40
0.0
 40
0.0
 40
0.0632229835438698
 40
0.1262001645839193
 40
0.2515982710686346
 40
0.5009232440455393
 40
0.7500031265908546
 40
0.8747096833276816
 40
1.0
 40
1.0
 40
1.0
 40
1.0
 10
163.4105223197298
 20
100.2495962256401
 30
0.0
 10
163.4101139943449
 20
100.2625835630242
 30
0.0
 10
163.4092989310898
 20
100.2885077447618
 30
0.0
 10
163.4027949212275
 20
100.3398632856925
 30
0.0
 10
163.3778753400548
 20
100.4269816723389
 30
0.0
 10
163.3030073706852
 20
100.5352871733676
 30
0.0
 10
163.1944838412828
 20
100.6091894761903
 30
0.0
 10
163.0950621711482
 20
100.6372116530607
 30
0.0
 10
163.0437582841926
 20
100.6400963650341
 30
0.0
 10
163.0180464416582
 20
100.6415420890215
 30
0.0
  0
SPLINE
  5
121
330
1F
100
AcDbEntity
  8
0
  6
Continuous
 62
     7
370
    15
100
AcDbSpline
210
0.0
220
0.0
230
1.0
 70
     8
 71
     3
 72
     9
 73
     5
 74
     0
 42
0.000000001
 43
0.00000001
 40
0.0
 40
0.0
 40
0.0
 40
0.0
 40
0.5001164197879868
 40
1.0
 40
1.0
 40
1.0
 40
1.0
 10
163.0180464416582
 20
100.6415420890215
 30
0.0
 10
162.9950665916576
 20
100.6409316717657
 30
0.0
 10
162.9491175904024
 20
100.6397111214465
 30
0.0
 10
162.9037274367587
 20
100.6324509679701
 30
0.0
 10
162.881037644249
 20
100.6288217364574
 30
0.0
  0
LWPOLYLINE
  5
122
330
1F
100
AcDbEntity
  8
0
  6
Continuous
 62
     7
370
    15
100
AcDbPolyline
 90
        9
 70
   128
 43
0.0
 10
163.230582376
 20
101.1633415464
 10
163.1868944997
 20
101.0965345185
 10
163.1432052264
 20
101.0297251623
 10
163.0995140905
 20
100.9629134778
 10
163.0558215575
 20
100.896099465
 10
163.0121276276
 20
100.8292832402
 10
162.9684323007
 20
100.7624648618
 10
162.9247355768
 20
100.6956443298
 10
162.881037456
 20
100.6288217604
  0
LWPOLYLINE
  5
123
330
1F
100
AcDbEntity
  8
0
  6
Continuous
 62
     7
370
    15
100
AcDbPolyline
 90
        9
 70
   128
 43
0.0
 10
163.1391549045
 20
101.2351585077
 10
163.1505836295
 20
101.2261812566
 10
163.1620118888
 20
101.2172040055
 10
163.1734406138
 20
101.2082267543
 10
163.1848688731
 20
101.1992496196
 10
163.1962975981
 20
101.1902724849
 10
163.2077258574
 20
101.1812954666
 10
163.2191541167
 20
101.1723184483
 10
163.230582376
 20
101.1633415464
  0
LWPOLYLINE
  5
124
330
1F
100
AcDbEntity
  8
0
  6
Continuous
 62
     7
370
    15
100
AcDbPolyline
 90
        9
 70
   128
 43
0.0
 10
162.4098543571
 20
101.2012376441
 10
162.3229498537
 20
101.0316674355
 10
162.2360392967
 20
100.8620861676
 10
162.1491236174
 20
100.692494364
 10
162.0622028159
 20
100.5228926069
 10
161.9752773577
 20
100.3532816821
 10
161.888347243
 20
100.1836621717
 10
161.8014129372
 20
100.0140347305
 10
161.7144753719
 20
99.8443999951
  0
LINE
  5
125
330
1F
100
AcDbEntity
  8
0
  6
Continuous
 62
     7
370
    15
100
AcDbLine
 10
161.5957522327
 20
101.2012376441
 30
0.0
 11
162.4098543571
 21
101.2012376441
 31
0.0
  0
LINE
  5
126
330
1F
100
AcDbEntity
  8
0
  6
Continuous
 62
     7
370
    15
100
AcDbLine
 10
161.5957522327
 20
101.0655538402
 30
0.0
 11
161.5957522327
 21
101.2012376441
 31
0.0
  0
LINE
  5
127
330
1F
100
AcDbEntity
  8
0
  6
Continuous
 62
     7
370
    15
100
AcDbLine
 10
162.208978788
 20
101.0655538402
 30
0.0
 11
161.5957522327
 21
101.0655538402
 31
0.0
  0
LWPOLYLINE
  5
128
330
1F
100
AcDbEntity
  8
0
  6
Continuous
 62
     7
370
    15
100
AcDbPolyline
 90
        9
 70
   128
 43
0.0
 10
161.6119176643
 20
99.9008465596
 10
161.686561306
 20
100.0464564122
 10
161.7612021537
 20
100.1920609551
 10
161.8358402075
 20
100.3376597937
 10
161.9104750017
 20
100.4832524913
 10
161.9851065362
 20
100.6288386988
 10
162.0597348111
 20
100.7744178632
 10
162.134358895
 20
100.9199897516
 10
162.208978788
 20
101.0655538402
  0
LWPOLYLINE
  5
129
330
1F
100
AcDbEntity
  8
0
  6
Continuous
 62
     7
370
    15
100
AcDbPolyline
 90
        9
 70
   128
 43
0.0
 10
161.7144753719
 20
99.8443999951
 10
161.7016557166
 20
99.8514556713
 10
161.6888365271
 20
99.8585113911
 10
161.6760168718
 20
99.8655671501
 10
161.6631967509
 20
99.8726229504
 10
161.6503770957
 20
99.8796787919
 10
161.6375574404
 20
99.8867346743
 10
161.6247373195
 20
99.893790596
 10
161.6119176643
 20
99.9008465596
  0
SPLINE
  5
12A
330
1F
100
AcDbEntity
  8
0
  6
Continuous
 62
     7
370
    15
100
AcDbSpline
210
0.0
220
0.0
230
1.0
 70
     8
 71
     3
 72
    13
 73
     9
 74
     0
 42
0.000000001
 43
0.00000001
 40
0.0
 40
0.0
 40
0.0
 40
0.0
 40
0.1261025302317556
 40
0.2515691687863794
 40
0.5009015451623011
 40
0.7502423315836775
 40
0.8748555761863337
 40
1.0
 40
1.0
 40
1.0
 40
1.0
 10
160.6629261658836
 20
100.7941863197907
 30
0.0
 10
160.6651459870647
 20
100.8142675533974
 30
0.0
 10
160.6695744356323
 20
100.8543287578582
 30
0.0
 10
160.6923302648144
 20
100.9314739340583
 30
0.0
 10
160.7456357043251
 20
101.0191547074606
 30
0.0
 10
160.8319550059834
 20
101.0756272044988
 30
0.0
 10
160.9095628358431
 20
101.0963727924951
 30
0.0
 10
160.9495190620333
 20
101.0984393200358
 30
0.0
 10
160.9695396641475
 20
101.0994747813292
 30
0.0
  0
SPLINE
  5
12B
330
1F
100
AcDbEntity
  8
0
  6
Continuous
 62
     7
370
    15
100
AcDbSpline
210
0.0
220
0.0
230
1.0
 70
     8
 71
     3
 72
    13
 73
     9
 74
     0
 42
0.000000001
 43
0.00000001
 40
0.0
 40
0.0
 40
0.0
 40
0.0
 40
0.1260119941999759
 40
0.2511546570401396
 40
0.5005353653066362
 40
0.7501789553649213
 40
0.8748313175931641
 40
0.9999999999999999
 40
0.9999999999999999
 40
0.9999999999999999
 40
0.9999999999999999
 10
160.9695396641475
 20
101.0994747813292
 30
0.0
 10
160.9878292368794
 20
101.0986267862465
 30
0.0
 10
161.0242822062658
 20
101.0969366462285
 30
0.0
 10
161.0949665835874
 20
101.0781598510517
 30
0.0
 10
161.1737498814062
 20
101.0292548193878
 30
0.0
 10
161.229801318979
 20
100.9551946305884
 30
0.0
 10
161.2532923546205
 20
100.8857903418172
 30
0.0
 10
161.2554577057031
 20
100.8494800275776
 30
0.0
 10
161.2565426188751
 20
100.8312873481027
 30
0.0
  0
SPLINE
  5
12C
330
1F
100
AcDbEntity
  8
0
  6
Continuous
 62
     7
370
    15
100
AcDbSpline
210
0.0
220
0.0
230
1.0
 70
     8
 71
     3
 72
    13
 73
     9
 74
     0
 42
0.000000001
 43
0.00000001
 40
0.0
 40
0.0
 40
0.0
 40
0.0
 40
0.1255879492747813
 40
0.249983186928723
 40
0.4988501703142005
 40
0.7493840029054984
 40
0.8746890069186538
 40
1.0
 40
1.0
 40
1.0
 40
1.0
 10
161.2565426188751
 20
100.8312873481027
 30
0.0
 10
161.2553133810476
 20
100.8108130703565
 30
0.0
 10
161.2528665794925
 20
100.7700589595472
 30
0.0
 10
161.228070908553
 20
100.6918164271009
 30
0.0
 10
161.1708803267246
 20
100.6064457507809
 30
0.0
 10
161.1039219729253
 20
100.5300824664531
 30
0.0
 10
161.0486501529316
 20
100.4700620333281
 30
0.0
 10
161.0204673988848
 20
100.4405716527717
 30
0.0
 10
161.0063756851144
 20
100.4258261101219
 30
0.0
  0
LWPOLYLINE
  5
12D
330
1F
100
AcDbEntity
  8
0
  6
Continuous
 62
     7
370
    15
100
AcDbPolyline
 90
        9
 70
   128
 43
0.0
 10
160.4933214867
 20
99.8783209352
 10
160.5574586457
 20
99.9467647843
 10
160.6215944076
 20
100.0152071201
 10
160.6857285397
 20
100.0836479061
 10
160.7498612748
 20
100.1520870477
 10
160.8139923802
 20
100.2205245304
 10
160.8781218557
 20
100.2889602086
 10
160.9422497014
 20
100.3573941116
 10
161.0063756844
 20
100.4258260936
  0
LINE
  5
12E
330
1F
100
AcDbEntity
  8
0
  6
Continuous
 62
     7
370
    15
100
AcDbLine
 10
161.3922265852
 20
99.8783209352
 30
0.0
 11
160.4933214867
 21
99.8783209352
 31
0.0
  0
LINE
  5
12F
330
1F
100
AcDbEntity
  8
0
  6
Continuous
 62
     7
370
    15
100
AcDbLine
 10
161.3922265852
 20
100.0140046953
 30
0.0
 11
161.3922265852
 21
99.8783209352
 31
0.0
  0
LINE
  5
130
330
1F
100
AcDbEntity
  8
0
  6
Continuous
 62
     7
370
    15
100
AcDbLine
 10
160.7766142143
 20
100.0140046953
 30
0.0
 11
161.3922265852
 21
100.0140046953
 31
0.0
  0
LINE
  5
131
330
1F
100
AcDbEntity
  8
0
  6
Continuous
 62
     7
370
    15
100
AcDbLine
 10
161.1076085856
 20
100.3672594661
 30
0.0
 11
160.7766142143
 21
100.0140046953
 31
0.0
  0
SPLINE
  5
132
330
1F
100
AcDbEntity
  8
0
  6
Continuous
 62
     7
370
    15
100
AcDbSpline
210
0.0
220
0.0
230
1.0
 70
     8
 71
     3
 72
    14
 73
    10
 74
     0
 42
0.000000001
 43
0.00000001
 40
0.0
 40
0.0
 40
0.0
 40
0.0
 40
0.1251757422606099
 40
0.2503536287404624
 40
0.5004855975095422
 40
0.6255493219161737
 40
0.7499107817198498
 40
0.8674481719468283
 40
1.0
 40
1.0
 40
1.0
 40
1.0
 10
161.107608490937
 20
100.367259486858
 30
0.0
 10
161.1235056262024
 20
100.3843403013246
 30
0.0
 10
161.1553001690458
 20
100.4185022228466
 30
0.0
 10
161.2173431936181
 20
100.4881530965681
 30
0.0
 10
161.2762179786435
 20
100.5607441384634
 30
0.0
 10
161.3263073155087
 20
100.6394646832566
 30
0.0
 10
161.3542137446141
 20
100.7023094972425
 30
0.0
 10
161.3705420592841
 20
100.7706022756706
 30
0.0
 10
161.3736295064161
 20
100.8171934652136
 30
0.0
 10
161.3752659094733
 20
100.8418876419061
 30
0.0
  0
SPLINE
  5
133
330
1F
100
AcDbEntity
  8
0
  6
Continuous
 62
     7
370
    15
100
AcDbSpline
210
0.0
220
0.0
230
1.0
 70
     8
 71
     3
 72
    15
 73
    11
 74
     0
 42
0.000000001
 43
0.00000001
 40
0.0
 40
0.0
 40
0.0
 40
0.0
 40
0.1254856687329224
 40
0.2502928009213642
 40
0.3751818832462015
 40
0.5004346063333803
 40
0.6253810519486876
 40
0.7506059004957728
 40
0.8750477289606566
 40
1.0
 40
1.0
 40
1.0
 40
1.0
 10
161.3752659094733
 20
100.8418876419061
 30
0.0
 10
161.3739153588439
 20
100.8680908844364
 30
0.0
 10
161.3712215603948
 20
100.9203556811448
 30
0.0
 10
161.3479266121419
 20
100.9958767479162
 30
0.0
 10
161.310503355157
 20
101.0649243137984
 30
0.0
 10
161.26106968666
 20
101.1261513818298
 30
0.0
 10
161.1999754625862
 20
101.1759563762703
 30
0.0
 10
161.1299319701184
 20
101.211766634759
 30
0.0
 10
161.0536484451658
 20
101.2312737166378
 30
0.0
 10
161.0016748291111
 20
101.2338618344944
 30
0.0
 10
160.9756348330844
 20
101.2351585420129
 30
0.0
  0
SPLINE
  5
134
330
1F
100
AcDbEntity
  8
0
  6
Continuous
 62
     7
370
    15
100
AcDbSpline
210
0.0
220
0.0
230
1.0
 70
     8
 71
     3
 72
    14
 73
    10
 74
     0
 42
0.000000001
 43
0.00000001
 40
0.0
 40
0.0
 40
0.0
 40
0.0
 40
0.0632548898371738
 40
0.1262374215914063
 40
0.2517390595134691
 40
0.5010461153544696
 40
0.7501439719368316
 40
0.8680368722018424
 40
0.9999999999999999
 40
0.9999999999999999
 40
0.9999999999999999
 40
0.9999999999999999
 10
160.9756348330844
 20
101.2351585420129
 30
0.0
 10
160.9612022377875
 20
101.2347723869376
 30
0.0
 10
160.9323991899622
 20
101.2340017394641
 30
0.0
 10
160.8753583460971
 20
101.2264819708807
 30
0.0
 10
160.7788821150219
 20
101.1978989115751
 30
0.0
 10
160.6590473243774
 20
101.1135314873474
 30
0.0
 10
160.5811343744001
 20
100.9917944394369
 30
0.0
 10
160.5510614277937
 20
100.8812274132266
 30
0.0
 10
160.5465733064889
 20
100.8242691869294
 30
0.0
 10
160.5442028752853
 20
100.7941863197907
 30
0.0
  0
LINE
  5
135
330
1F
100
AcDbEntity
  8
0
  6
Continuous
 62
     7
370
    15
100
AcDbLine
 10
160.6629262706
 20
100.7941862908
 30
0.0
 11
160.5442028986
 21
100.7941862908
 31
0.0
  0
LINE
  5
136
330
1F
100
AcDbEntity
  8
0
  6
Continuous
 62
     7
370
    15
100
AcDbLine
 10
155.5239037871
 20
100.8450677027
 30
0.0
 11
155.5239037871
 21
99.8783209352
 31
0.0
  0
LINE
  5
137
330
1F
100
AcDbEntity
  8
0
  6
Continuous
 62
     7
370
    15
100
AcDbLine
 10
155.4051805315
 20
100.8450677027
 30
0.0
 11
155.5239037871
 21
100.8450677027
 31
0.0
  0
LINE
  5
138
330
1F
100
AcDbEntity
  8
0
  6
Continuous
 62
     7
370
    15
100
AcDbLine
 10
155.4051805315
 20
100.6661877609
 30
0.0
 11
155.4051805315
 21
100.8450677027
 31
0.0
  0
SPLINE
  5
139
330
1F
100
AcDbEntity
  8
0
  6
Continuous
 62
     7
370
    15
100
AcDbSpline
210
0.0
220
0.0
230
1.0
 70
     8
 71
     3
 72
    13
 73
     9
 74
     0
 42
0.000000001
 43
0.00000001
 40
0.0
 40
0.0
 40
0.0
 40
0.0
 40
0.1255174698708936
 40
0.2507708233888005
 40
0.499718886502146
 40
0.7492064108185362
 40
0.8744900902592968
 40
1.0
 40
1.0
 40
1.0
 40
1.0
 10
155.4051804393879
 20
100.6661877721144
 30
0.0
 10
155.3934405486639
 20
100.6811944728387
 30
0.0
 10
155.3699854705272
 20
100.7111762968896
 30
0.0
 10
155.3164148752135
 20
100.7650537502631
 30
0.0
 10
155.237156170497
 20
100.8188820588342
 30
0.0
 10
155.1463546065808
 20
100.8492316585255
 30
0.0
 10
155.0711005994258
 20
100.8599864610967
 30
0.0
 10
155.0330647020284
 20
100.8613472112955
 30
0.0
 10
155.0140295980417
 20
100.8620282001326
 30
0.0
  0
SPLINE
  5
13A
330
1F
100
AcDbEntity
  8
0
  6
Continuous
 62
     7
370
    15
100
AcDbSpline
210
0.0
220
0.0
230
1.0
 70
     8
 71
     3
 72
    14
 73
    10
 74
     0
 42
0.000000001
 43
0.00000001
 40
0.0
 40
0.0
 40
0.0
 40
0.0
 40
0.0631910287751251
 40
0.1262830940589519
 40
0.2512612309507253
 40
0.5006725277902415
 40
0.7499834269026671
 40
0.8746992907723019
 40
1.0
 40
1.0
 40
1.0
 40
1.0
 10
155.0140295980417
 20
100.8620282001326
 30
0.0
 10
154.9974515182131
 20
100.8614463561895
 30
0.0
 10
154.9643213214923
 20
100.8602835795293
 30
0.0
 10
154.8987529150701
 20
100.8523279662174
 30
0.0
 10
154.7876997264102
 20
100.8197867938362
 30
0.0
 10
154.6486320807706
 20
100.7260665393594
 30
0.0
 10
154.5505155692188
 20
100.5896782739381
 30
0.0
 10
154.5121696361649
 20
100.4629472915864
 30
0.0
 10
154.5082432901643
 20
100.3972632511831
 30
0.0
 10
154.506275524858
 20
100.3643444060621
 30
0.0
  0
SPLINE
  5
13B
330
1F
100
AcDbEntity
  8
0
  6
Continuous
 62
     7
370
    15
100
AcDbSpline
210
0.0
220
0.0
230
1.0
 70
     8
 71
     3
 72
    16
 73
    12
 74
     0
 42
0.000000001
 43
0.00000001
 40
0.0
 40
0.0
 40
0.0
 40
0.0
 40
0.0630534663408849
 40
0.1258787829489092
 40
0.2507266806290266
 40
0.3931837507315794
 40
0.5007520866254969
 40
0.6652794308326874
 40
0.8293276161477396
 40
0.9114404502498998
 40
1.0
 40
1.0
 40
1.0
 40
1.0
 10
154.506275524858
 20
100.3643444060621
 30
0.0
 10
154.5068296924337
 20
100.3477199019626
 30
0.0
 10
154.507936022411
 20
100.3145310470968
 30
0.0
 10
154.5164259477297
 20
100.2488465806941
 30
0.0
 10
154.5414259091895
 20
100.1647622183026
 30
0.0
 10
154.5904270355031
 20
100.0777653783551
 30
0.0
 10
154.6624997242559
 20
99.99512512239534
 30
0.0
 10
154.7534823046578
 20
99.92286607183672
 30
0.0
 10
154.8549399494151
 20
99.88065869826487
 30
0.0
 10
154.9420157527388
 20
99.86488261538432
 30
0.0
 10
154.9869853766261
 20
99.86256371208144
 30
0.0
 10
155.0103194952105
 20
99.86136046508985
 30
0.0
  0
SPLINE
  5
13C
330
1F
100
AcDbEntity
  8
0
  6
Continuous
 62
     7
370
    15
100
AcDbSpline
210
0.0
220
0.0
230
1.0
 70
     8
 71
     3
 72
    14
 73
    10
 74
     0
 42
0.000000001
 43
0.00000001
 40
0.0
 40
0.0
 40
0.0
 40
0.0
 40
0.1253968680005153
 40
0.2505503754525578
 40
0.3098634262422164
 40
0.50003345820827
 40
0.7491688017305808
 40
0.8744601574291923
 40
0.9999999999999999
 40
0.9999999999999999
 40
0.9999999999999999
 40
0.9999999999999999
 10
155.0103194952105
 20
99.86136046508985
 30
0.0
 10
155.0291680731267
 20
99.86186274401749
 30
0.0
 10
155.0668286490959
 20
99.86286632708862
 30
0.0
 10
155.1129977255359
 20
99.86987456247657
 30
0.0
 10
155.1678625112251
 20
99.88250525919314
 30
0.0
 10
155.2389540001096
 20
99.90735878580251
 30
0.0
 10
155.3121648475631
 20
99.95225605101376
 30
0.0
 10
155.3674275396489
 20
100.0033922114666
 30
0.0
 10
155.3925878310957
 20
100.0314818414057
 30
0.0
 10
155.4051804393879
 20
100.0455405699242
 30
0.0
  0
LINE
  5
13D
330
1F
100
AcDbEntity
  8
0
  6
Continuous
 62
     7
370
    15
100
AcDbLine
 10
155.4051805315
 20
99.8783209352
 30
0.0
 11
155.4051805315
 21
100.0455405728
 31
0.0
  0
LINE
  5
13E
330
1F
100
AcDbEntity
  8
0
  6
Continuous
 62
     7
370
    15
100
AcDbLine
 10
155.5239037871
 20
99.8783209352
 30
0.0
 11
155.4051805315
 21
99.8783209352
 31
0.0
  0
LINE
  5
13F
330
1F
100
AcDbEntity
  8
0
  6
Continuous
 62
     7
370
    15
100
AcDbLine
 10
154.2688289219
 20
100.4019754464
 30
0.0
 11
154.2688289219
 21
99.8783209352
 31
0.0
  0
SPLINE
  5
140
330
1F
100
AcDbEntity
  8
0
  6
Continuous
 62
     7
370
    15
100
AcDbSpline
210
0.0
220
0.0
230
1.0
 70
     8
 71
     3
 72
    14
 73
    10
 74
     0
 42
0.000000001
 43
0.00000001
 40
0.0
 40
0.0
 40
0.0
 40
0.0
 40
0.2505918154541287
 40
0.375539311551596
 40
0.5007928251300497
 40
0.625730642707096
 40
0.7506192310984156
 40
0.8750912642884492
 40
1.0
 40
1.0
 40
1.0
 40
1.0
 10
154.2688289436614
 20
100.4019754490642
 30
0.0
 10
154.2675919049201
 20
100.4556983485669
 30
0.0
 10
154.2657380667314
 20
100.5362080039091
 30
0.0
 10
154.2452112826393
 20
100.6419062710794
 30
0.0
 10
154.2135131293289
 20
100.7165155940863
 30
0.0
 10
154.1634038020936
 20
100.7805301947126
 30
0.0
 10
154.0978998462382
 20
100.8281852374692
 30
0.0
 10
154.021769947754
 20
100.8568168939044
 30
0.0
 10
153.9683177651247
 20
100.8602890712916
 30
0.0
 10
153.9415448724808
 20
100.8620282001326
 30
0.0
  0
SPLINE
  5
141
330
1F
100
AcDbEntity
  8
0
  6
Continuous
 62
     7
370
    15
100
AcDbSpline
210
0.0
220
0.0
230
1.0
 70
     8
 71
     3
 72
    13
 73
     9
 74
     0
 42
0.000000001
 43
0.00000001
 40
0.0
 40
0.0
 40
0.0
 40
0.0
 40
0.1258190396379865
 40
0.2506707906531711
 40
0.4998215142758725
 40
0.7494852875435811
 40
0.8669403679449378
 40
0.9999999999999999
 40
0.9999999999999999
 40
0.9999999999999999
 40
0.9999999999999999
 10
153.9415448724808
 20
100.8620282001326
 30
0.0
 10
153.9228308585549
 20
100.861175750751
 30
0.0
 10
153.8855467028293
 20
100.8594774055633
 30
0.0
 10
153.8129137706905
 20
100.8421764532239
 30
0.0
 10
153.7285321256893
 20
100.8004707913548
 30
0.0
 10
153.6605652881206
 20
100.7373491606022
 30
0.0
 10
153.6157146115272
 20
100.6778679058719
 30
0.0
 10
153.5969380964764
 20
100.6456624796134
 30
0.0
 10
153.5869650447565
 20
100.6285567291123
 30
0.0
  0
SPLINE
  5
142
330
1F
100
AcDbEntity
  8
0
  6
Continuous
 62
     7
370
    15
100
AcDbSpline
210
0.0
220
0.0
230
1.0
 70
     8
 71
     3
 72
    15
 73
    11
 74
     0
 42
0.000000001
 43
0.00000001
 40
0.0
 40
0.0
 40
0.0
 40
0.0
 40
0.1256469847203421
 40
0.2507173956648521
 40
0.3507333169582601
 40
0.5000239578811915
 40
0.6254383846609075
 40
0.7503084822090057
 40
0.8679629309524914
 40
1.0
 40
1.0
 40
1.0
 40
1.0
 10
153.5869650447565
 20
100.6285567291123
 30
0.0
 10
153.5809266428996
 20
100.6449086353334
 30
0.0
 10
153.5688775484394
 20
100.6775374115117
 30
0.0
 10
153.5467823103879
 20
100.7210681889713
 30
0.0
 10
153.5166141870385
 20
100.763521577064
 30
0.0
 10
153.4781571665604
 20
100.7992714122918
 30
0.0
 10
153.430420460796
 20
100.8278119089851
 30
0.0
 10
153.3830410658751
 20
100.8472242286897
 30
0.0
 10
153.3321477615031
 20
100.8586779737428
 30
0.0
 10
153.2975740975394
 20
100.8608693818297
 30
0.0
 10
153.2792915171122
 20
100.8620282001326
 30
0.0
  0
SPLINE
  5
143
330
1F
100
AcDbEntity
  8
0
  6
Continuous
 62
     7
370
    15
100
AcDbSpline
210
0.0
220
0.0
230
1.0
 70
     8
 71
     3
 72
    11
 73
     7
 74
     0
 42
0.000000001
 43
0.00000001
 40
0.0
 40
0.0
 40
0.0
 40
0.0
 40
0.2496702516325131
 40
0.4988585482880876
 40
0.7492808548489965
 40
1.0
 40
1.0
 40
1.0
 40
1.0
 10
153.2792915171122
 20
100.8620282001326
 30
0.0
 10
153.2620712930361
 20
100.8611819038906
 30
0.0
 10
153.2276640862198
 20
100.8594909450681
 30
0.0
 10
153.1765231774159
 20
100.8508614546921
 30
0.0
 10
153.1268923155513
 20
100.8353729021283
 30
0.0
 10
153.0956409379127
 20
100.8204618056422
 30
0.0
 10
153.080005993608
 20
100.8130018412918
 30
0.0
  0
SPLINE
  5
144
330
1F
100
AcDbEntity
  8
0
  6
Continuous
 62
     7
370
    15
100
AcDbSpline
210
0.0
220
0.0
230
1.0
 70
     8
 71
     3
 72
    11
 73
     7
 74
     0
 42
0.000000001
 43
0.00000001
 40
0.0
 40
0.0
 40
0.0
 40
0.0
 40
0.2663830768096991
 40
0.4988319964086874
 40
0.7493322178424409
 40
1.0
 40
1.0
 40
1.0
 40
1.0
 10
153.080005993608
 20
100.8130018412918
 30
0.0
 10
153.0661383022045
 20
100.803052017917
 30
0.0
 10
153.0401695046697
 20
100.7844198648636
 30
0.0
 10
153.0049167811437
 20
100.75168142742
 30
0.0
 10
152.9743130117849
 20
100.7159391055693
 30
0.0
 10
152.9553812984705
 20
100.6900179728592
 30
0.0
 10
152.9459122769947
 20
100.6770530732629
 30
0.0
  0
LINE
  5
145
330
1F
100
AcDbEntity
  8
0
  6
Continuous
 62
     7
370
    15
100
AcDbLine
 10
152.9459122131
 20
100.8450677027
 30
0.0
 11
152.9459122131
 21
100.6770530939
 31
0.0
  0
LINE
  5
146
330
1F
100
AcDbEntity
  8
0
  6
Continuous
 62
     7
370
    15
100
AcDbLine
 10
152.8271890739
 20
100.8450677027
 30
0.0
 11
152.9459122131
 21
100.8450677027
 31
0.0
  0
SPLINE
  5
147
330
1F
100
AcDbEntity
  8
0
  6
Continuous
 62
     7
370
    15
100
AcDbSpline
210
0.0
220
0.0
230
1.0
 70
     8
 71
     3
 72
     9
 73
     5
 74
     0
 42
0.000000001
 43
0.00000001
 40
0.0
 40
0.0
 40
0.0
 40
0.0
 40
0.5009847722526827
 40
1.0
 40
1.0
 40
1.0
 40
1.0
 10
152.8271889863964
 20
100.8450677300471
 30
0.0
 10
152.8272446780733
 20
100.6836289120232
 30
0.0
 10
152.8273558424838
 20
100.3613859478349
 30
0.0
 10
152.8272445320152
 20
100.0391310409348
 30
0.0
 10
152.8271889863964
 20
99.87832093517532
 30
0.0
  0
LINE
  5
148
330
1F
100
AcDbEntity
  8
0
  6
Continuous
 62
     7
370
    15
100
AcDbLine
 10
152.9459122131
 20
99.8783209352
 30
0.0
 11
152.8271890739
 21
99.8783209352
 31
0.0
  0
LINE
  5
149
330
1F
100
AcDbEntity
  8
0
  6
Continuous
 62
     7
370
    15
100
AcDbLine
 10
152.9459122131
 20
100.2851072107
 30
0.0
 11
152.9459122131
 21
99.8783209352
 31
0.0
  0
SPLINE
  5
14A
330
1F
100
AcDbEntity
  8
0
  6
Continuous
 62
     7
370
    15
100
AcDbSpline
210
0.0
220
0.0
230
1.0
 70
     8
 71
     3
 72
    15
 73
    11
 74
     0
 42
0.000000001
 43
0.00000001
 40
0.0
 40
0.0
 40
0.0
 40
0.0
 40
0.125486669659182
 40
0.2508953929654427
 40
0.3760455730600203
 40
0.5013019576697231
 40
0.7497539487082264
 40
0.8746787807813426
 40
0.934536287639577
 40
1.0
 40
1.0
 40
1.0
 40
1.0
 10
152.9459122769947
 20
100.2851072098815
 30
0.0
 10
152.9461992910904
 20
100.3112536277181
 30
0.0
 10
152.9467731410022
 20
100.3635302224796
 30
0.0
 10
152.95354177742
 20
100.4416528395926
 30
0.0
 10
152.9681852993387
 20
100.5188488968677
 30
0.0
 10
153.0074742867864
 20
100.615983237529
 30
0.0
 10
153.0844315495962
 20
100.6934196956925
 30
0.0
 10
153.1677107430743
 20
100.7303747237244
 30
0.0
 10
153.2189683928824
 20
100.7406933193845
 30
0.0
 10
153.2450150310239
 20
100.7424087990032
 30
0.0
 10
153.2586209441956
 20
100.7433049095343
 30
0.0
  0
SPLINE
  5
14B
330
1F
100
AcDbEntity
  8
0
  6
Continuous
 62
     7
370
    15
100
AcDbSpline
210
0.0
220
0.0
230
1.0
 70
     8
 71
     3
 72
    15
 73
    11
 74
     0
 42
0.000000001
 43
0.00000001
 40
0.0
 40
0.0
 40
0.0
 40
0.0
 40
0.1254191693111935
 40
0.2505171158938063
 40
0.3756307050434745
 40
0.5008049383046363
 40
0.6251121460718195
 40
0.7495537903514575
 40
0.8749111851660191
 40
1.0
 40
1.0
 40
1.0
 40
1.0
 10
153.2586209441956
 20
100.7433049095343
 30
0.0
 10
153.2797474425602
 20
100.742054583487
 30
0.0
 10
153.3219463302448
 20
100.739557133719
 30
0.0
 10
153.3813524530104
 20
100.7149086740761
 30
0.0
 10
153.430617277983
 20
100.6742360740775
 30
0.0
 10
153.4649249361093
 20
100.6200132557462
 30
0.0
 10
153.4799913152312
 20
100.5584464657743
 30
0.0
 10
153.4873282577223
 20
100.4960076018634
 30
0.0
 10
153.488843369547
 20
100.4329856947246
 30
0.0
 10
153.488712622931
 20
100.3909199012464
 30
0.0
 10
153.4886473197298
 20
100.3699095603089
 30
0.0
  0
LINE
  5
14C
330
1F
100
AcDbEntity
  8
0
  6
Continuous
 62
     7
370
    15
100
AcDbLine
 10
153.4886474283
 20
99.8783209352
 30
0.0
 11
153.4886474283
 21
100.3699095445
 31
0.0
  0
LINE
  5
14D
330
1F
100
AcDbEntity
  8
0
  6
Continuous
 62
     7
370
    15
100
AcDbLine
 10
153.6073705675
 20
99.8783209352
 30
0.0
 11
153.4886474283
 21
99.8783209352
 31
0.0
  0
LINE
  5
14E
330
1F
100
AcDbEntity
  8
0
  6
Continuous
 62
     7
370
    15
100
AcDbLine
 10
153.6073705675
 20
100.254366348
 30
0.0
 11
153.6073705675
 21
99.8783209352
 31
0.0
  0
SPLINE
  5
14F
330
1F
100
AcDbEntity
  8
0
  6
Continuous
 62
     7
370
    15
100
AcDbSpline
210
0.0
220
0.0
230
1.0
 70
     8
 71
     3
 72
    14
 73
    10
 74
     0
 42
0.000000001
 43
0.00000001
 40
0.0
 40
0.0
 40
0.0
 40
0.0
 40
0.1257480350662099
 40
0.2514677121130482
 40
0.3768409777042828
 40
0.5021355105260062
 40
0.7501219830379485
 40
0.8749868872257675
 40
1.0
 40
1.0
 40
1.0
 40
1.0
 10
153.607370610328
 20
100.2543663578516
 30
0.0
 10
153.6076384104337
 20
100.2818791109801
 30
0.0
 10
153.6081739502522
 20
100.3368984127093
 30
0.0
 10
153.6137424004323
 20
100.419174425026
 30
0.0
 10
153.6250475398805
 20
100.5009451746565
 30
0.0
 10
153.6605537184612
 20
100.6051262929766
 30
0.0
 10
153.7383834153201
 20
100.6895915067381
 30
0.0
 10
153.8385872242432
 20
100.7365458787948
 30
0.0
 10
153.8934344307303
 20
100.741051008588
 30
0.0
 10
153.9208742995642
 20
100.7433049095343
 30
0.0
  0
SPLINE
  5
150
330
1F
100
AcDbEntity
  8
0
  6
Continuous
 62
     7
370
    15
100
AcDbSpline
210
0.0
220
0.0
230
1.0
 70
     8
 71
     3
 72
    14
 73
    10
 74
     0
 42
0.000000001
 43
0.00000001
 40
0.0
 40
0.0
 40
0.0
 40
0.0
 40
0.1253948324848804
 40
0.2506152599745907
 40
0.375985491541643
 40
0.5012325091725743
 40
0.7494067598683267
 40
0.8747800186096102
 40
1.0
 40
1.0
 40
1.0
 40
1.0
 10
153.9208742995642
 20
100.7433049095343
 30
0.0
 10
153.9406812144609
 20
100.7422793020721
 30
0.0
 10
153.9802674958713
 20
100.7402295136105
 30
0.0
 10
154.0366966688863
 20
100.7193304436418
 30
0.0
 10
154.0853489414499
 20
100.6844285393207
 30
0.0
 10
154.1334465507004
 20
100.620302711451
 30
0.0
 10
154.1469894333276
 20
100.539949488712
 30
0.0
 10
154.1502279929534
 20
100.4617835482465
 30
0.0
 10
154.1501464163942
 20
100.4222567662948
 30
0.0
 10
154.1501056530631
 20
100.4025054637544
 30
0.0
  0
LINE
  5
151
330
1F
100
AcDbEntity
  8
0
  6
Continuous
 62
     7
370
    15
100
AcDbLine
 10
154.1501055499
 20
99.8783209352
 30
0.0
 11
154.1501055499
 21
100.4025054853
 31
0.0
  0
LINE
  5
152
330
1F
100
AcDbEntity
  8
0
  6
Continuous
 62
     7
370
    15
100
AcDbLine
 10
154.2688289219
 20
99.8783209352
 30
0.0
 11
154.1501055499
 21
99.8783209352
 31
0.0
  0
SPLINE
  5
153
330
1F
100
AcDbEntity
  8
0
  6
Continuous
 62
     7
370
    15
100
AcDbSpline
210
0.0
220
0.0
230
1.0
 70
     8
 71
     3
 72
    14
 73
    10
 74
     0
 42
0.000000001
 43
0.00000001
 40
0.0
 40
0.0
 40
0.0
 40
0.0
 40
0.1256196928281495
 40
0.2511781308367692
 40
0.3761959231298722
 40
0.5012291184739306
 40
0.7860167181163521
 40
0.8914371876381701
 40
1.0
 40
1.0
 40
1.0
 40
1.0
 10
150.8051829433943
 20
100.1836093967138
 30
0.0
 10
150.7950637406063
 20
100.168704122268
 30
0.0
 10
150.7748302693678
 20
100.1389008415035
 30
0.0
 10
150.740905913513
 20
100.0968692730565
 30
0.0
 10
150.7016810936447
 20
100.0595950455378
 30
0.0
 10
150.6367152297365
 20
100.0183547215695
 30
0.0
 10
150.5659895625526
 20
99.99355556208683
 30
0.0
 10
150.4954318257305
 20
99.98214291842683
 30
0.0
 10
150.4648125425189
 20
99.98077683026574
 30
0.0
 10
150.4492780789445
 20
99.98008375568814
 30
0.0
  0
SPLINE
  5
154
330
1F
100
AcDbEntity
  8
0
  6
Continuous
 62
     7
370
    15
100
AcDbSpline
210
0.0
220
0.0
230
1.0
 70
     8
 71
     3
 72
    13
 73
     9
 74
     0
 42
0.000000001
 43
0.00000001
 40
0.0
 40
0.0
 40
0.0
 40
0.0
 40
0.126066210954258
 40
0.251417683789265
 40
0.5007104231128884
 40
0.7500806804298084
 40
0.8747865459501678
 40
1.0
 40
1.0
 40
1.0
 40
1.0
 10
150.4492780789445
 20
99.98008375568814
 30
0.0
 10
150.4258740851469
 20
99.98122370313212
 30
0.0
 10
150.3791987875595
 20
99.98349713503615
 30
0.0
 10
150.2892448662532
 20
100.009603922115
 30
0.0
 10
150.1909236828957
 20
100.0766500256284
 30
0.0
 10
150.1257577641942
 20
100.1763784278602
 30
0.0
 10
150.1015277053042
 20
100.2666089774146
 30
0.0
 10
150.098213680464
 20
100.3130073322926
 30
0.0
 10
150.0965533026358
 20
100.336253627483
 30
0.0
  0
LINE
  5
155
330
1F
100
AcDbEntity
  8
0
  6
Continuous
 62
     7
370
    15
100
AcDbLine
 10
150.9615371497
 20
100.336253613
 30
0.0
 11
150.0965531478
 21
100.336253613
 31
0.0
  0
SPLINE
  5
156
330
1F
100
AcDbEntity
  8
0
  6
Continuous
 62
     7
370
    15
100
AcDbSpline
210
0.0
220
0.0
230
1.0
 70
     8
 71
     3
 72
    11
 73
     7
 74
     0
 42
0.000000001
 43
0.00000001
 40
0.0
 40
0.0
 40
0.0
 40
0.0
 40
0.2507646133390471
 40
0.5001606514640707
 40
0.749260014867328
 40
1.0
 40
1.0
 40
1.0
 40
1.0
 10
150.9615372769947
 20
100.336253627483
 30
0.0
 10
150.960353839932
 20
100.3661886589511
 30
0.0
 10
150.9579934245434
 20
100.4258953481898
 30
0.0
 10
150.9387619028421
 20
100.5135112740757
 30
0.0
 10
150.9070621483915
 20
100.5977527679094
 30
0.0
 10
150.8732772541588
 20
100.6470322901836
 30
0.0
 10
150.8563293609958
 20
100.6717529263612
 30
0.0
  0
SPLINE
  5
157
330
1F
100
AcDbEntity
  8
0
  6
Continuous
 62
     7
370
    15
100
AcDbSpline
210
0.0
220
0.0
230
1.0
 70
     8
 71
     3
 72
    14
 73
    10
 74
     0
 42
0.000000001
 43
0.00000001
 40
0.0
 40
0.0
 40
0.0
 40
0.0
 40
0.1260764782366613
 40
0.251273567662519
 40
0.5008313483867993
 40
0.625236101076129
 40
0.7498318840819236
 40
0.8678458740086942
 40
1.0
 40
1.0
 40
1.0
 40
1.0
 10
150.8563293609958
 20
100.6717529263612
 30
0.0
 10
150.8443384584953
 20
100.6863991707146
 30
0.0
 10
150.8204402905504
 20
100.7155895012427
 30
0.0
 10
150.7659471696457
 20
100.7675518532858
 30
0.0
 10
150.702481666965
 20
100.8087846322627
 30
0.0
 10
150.6333547632
 20
100.8376100049935
 30
0.0
 10
150.5799377260388
 20
100.8513431175216
 30
0.0
 10
150.5242872833309
 20
100.8594874402598
 30
0.0
 10
150.4868239820715
 20
100.8611499569557
 30
0.0
 10
150.4670335710653
 20
100.8620282001326
 30
0.0
  0
SPLINE
  5
158
330
1F
100
AcDbEntity
  8
0
  6
Continuous
 62
     7
370
    15
100
AcDbSpline
210
0.0
220
0.0
230
1.0
 70
     8
 71
     3
 72
    13
 73
     9
 74
     0
 42
0.000000001
 43
0.00000001
 40
0.0
 40
0.0
 40
0.0
 40
0.0
 40
0.1254966003729109
 40
0.2507219466734775
 40
0.4999601461221748
 40
0.749267775139304
 40
0.8745235988630231
 40
1.0
 40
1.0
 40
1.0
 40
1.0
 10
150.4670335710653
 20
100.8620282001326
 30
0.0
 10
150.4488915439127
 20
100.8614772065282
 30
0.0
 10
150.412646702612
 20
100.8603764102622
 30
0.0
 10
150.3410134288503
 20
100.8498450720802
 30
0.0
 10
150.2543031688092
 20
100.8220339344314
 30
0.0
 10
150.177212335722
 20
100.7730824468755
 30
0.0
 10
150.1244731959737
 20
100.72329763047
 30
0.0
 10
150.100920036804
 20
100.6956561195228
 30
0.0
 10
150.0891330969734
 20
100.6818232054745
 30
0.0
  0
SPLINE
  5
159
330
1F
100
AcDbEntity
  8
0
  6
Continuous
 62
     7
370
    15
100
AcDbSpline
210
0.0
220
0.0
230
1.0
 70
     8
 71
     3
 72
    12
 73
     8
 74
     0
 42
0.000000001
 43
0.00000001
 40
0.0
 40
0.0
 40
0.0
 40
0.0
 40
0.2508587756613259
 40
0.4999216619520138
 40
0.7489441437021408
 40
0.874407216240155
 40
1.0
 40
1.0
 40
1.0
 40
1.0
 10
150.0891330969734
 20
100.6818232054745
 30
0.0
 10
150.0721340376642
 20
100.6581577870038
 30
0.0
 10
150.0382576147284
 20
100.6109963699817
 30
0.0
 10
150.0034854060669
 20
100.5307926030095
 30
0.0
 10
149.9853836703631
 20
100.4604437897136
 30
0.0
 10
149.9792275291984
 20
100.4027006818724
 30
0.0
 10
149.9782960115179
 20
100.3736014115679
 30
0.0
 10
149.9778300120374
 20
100.3590442591604
 30
0.0
  0
SPLINE
  5
15A
330
1F
100
AcDbEntity
  8
0
  6
Continuous
 62
     7
370
    15
100
AcDbSpline
210
0.0
220
0.0
230
1.0
 70
     8
 71
     3
 72
    16
 73
    12
 74
     0
 42
0.000000001
 43
0.00000001
 40
0.0
 40
0.0
 40
0.0
 40
0.0
 40
0.0632137351553951
 40
0.1260720339282645
 40
0.25133036566449
 40
0.3763622231923089
 40
0.5017496303862323
 40
0.661714738287197
 40
0.818300192334882
 40
0.9044599829568079
 40
1.0
 40
1.0
 40
1.0
 40
1.0
 10
149.9778300120374
 20
100.3590442591604
 30
0.0
 10
149.9783499171041
 20
100.3426522366662
 30
0.0
 10
149.97938680393
 20
100.3099603602734
 30
0.0
 10
149.9876691242782
 20
100.2451929610264
 30
0.0
 10
150.0107741352484
 20
100.1667592163299
 30
0.0
 10
150.0548559627271
 20
100.0794181028203
 30
0.0
 10
150.1186275484578
 20
99.99369175171104
 30
0.0
 10
150.2076579347796
 20
99.91900007030753
 30
0.0
 10
150.306009155253
 20
99.87986992946101
 30
0.0
 10
150.3924151758192
 20
99.86473020975471
 30
0.0
 10
150.4394087073518
 20
99.86252171767343
 30
0.0
 10
150.4641184902693
 20
99.86136046508985
 30
0.0
  0
SPLINE
  5
15B
330
1F
100
AcDbEntity
  8
0
  6
Continuous
 62
     7
370
    15
100
AcDbSpline
210
0.0
220
0.0
230
1.0
 70
     8
 71
     3
 72
    15
 73
    11
 74
     0
 42
0.000000001
 43
0.00000001
 40
0.0
 40
0.0
 40
0.0
 40
0.0
 40
0.0631190539734123
 40
0.1260621658997755
 40
0.2514125422460449
 40
0.2624570810584566
 40
0.5011508342230345
 40
0.7501359147095142
 40
0.8677789984753423
 40
1.0
 40
1.0
 40
1.0
 40
1.0
 10
150.4641184902693
 20
99.86136046508985
 30
0.0
 10
150.4756467052641
 20
99.86159899916598
 30
0.0
 10
150.4986710007774
 20
99.86207540241325
 30
0.0
 10
150.5445037605861
 20
99.86527956953344
 30
0.0
 10
150.5805198633042
 20
99.87163682151551
 30
0.0
 10
150.6469063710822
 20
99.88861033694519
 30
0.0
 10
150.7325221889909
 20
99.92361739047517
 30
0.0
 10
150.8193491391599
 20
99.99535598112428
 30
0.0
 10
150.874985927503
 20
100.0680156622387
 30
0.0
 10
150.8983122415806
 20
100.1073880882065
 30
0.0
 10
150.9106558667383
 20
100.1282228615909
 30
0.0
  0
LWPOLYLINE
  5
15C
330
1F
100
AcDbEntity
  8
0
  6
Continuous
 62
     7
370
    15
100
AcDbPolyline
 90
        9
 70
   128
 43
0.0
 10
150.8051829906
 20
100.1836094065
 10
150.818366793
 20
100.1766863037
 10
150.8315505953
 20
100.1697631427
 10
150.8447343977
 20
100.1628399235
 10
150.8579182001
 20
100.1559166461
 10
150.8711024681
 20
100.1489932814
 10
150.8842867361
 20
100.1420698876
 10
150.8974714698
 20
100.1351464065
 10
150.9106557378
 20
100.1282228671
  0
LINE
  5
15D
330
1F
100
AcDbEntity
  8
0
  6
Continuous
 62
     7
370
    15
100
AcDbLine
 10
149.2824505577
 20
100.5228187996
 30
0.0
 11
149.2824505577
 21
99.8783209352
 31
0.0
  0
LINE
  5
15E
330
1F
100
AcDbEntity
  8
0
  6
Continuous
 62
     7
370
    15
100
AcDbLine
 10
149.8082254576
 20
100.5228187996
 30
0.0
 11
149.2824505577
 21
100.5228187996
 31
0.0
  0
LINE
  5
15F
330
1F
100
AcDbEntity
  8
0
  6
Continuous
 62
     7
370
    15
100
AcDbLine
 10
149.8082254576
 20
100.6585025452
 30
0.0
 11
149.8082254576
 21
100.5228187996
 31
0.0
  0
LINE
  5
160
330
1F
100
AcDbEntity
  8
0
  6
Continuous
 62
     7
370
    15
100
AcDbLine
 10
149.2824505577
 20
100.6585025452
 30
0.0
 11
149.8082254576
 21
100.6585025452
 31
0.0
  0
LINE
  5
161
330
1F
100
AcDbEntity
  8
0
  6
Continuous
 62
     7
370
    15
100
AcDbLine
 10
149.2824505577
 20
101.0655538402
 30
0.0
 11
149.2824505577
 21
100.6585025452
 31
0.0
  0
LINE
  5
162
330
1F
100
AcDbEntity
  8
0
  6
Continuous
 62
     7
370
    15
100
AcDbLine
 10
149.8082254576
 20
101.0655538402
 30
0.0
 11
149.2824505577
 21
101.0655538402
 31
0.0
  0
LINE
  5
163
330
1F
100
AcDbEntity
  8
0
  6
Continuous
 62
     7
370
    15
100
AcDbLine
 10
149.8082254576
 20
101.2012376441
 30
0.0
 11
149.8082254576
 21
101.0655538402
 31
0.0
  0
LINE
  5
164
330
1F
100
AcDbEntity
  8
0
  6
Continuous
 62
     7
370
    15
100
AcDbLine
 10
149.1637274185
 20
101.2012376441
 30
0.0
 11
149.8082254576
 21
101.2012376441
 31
0.0
  0
LINE
  5
165
330
1F
100
AcDbEntity
  8
0
  6
Continuous
 62
     7
370
    15
100
AcDbLine
 10
149.1637274185
 20
99.8783209352
 30
0.0
 11
149.1637274185
 21
101.2012376441
 31
0.0
  0
LINE
  5
166
330
1F
100
AcDbEntity
  8
0
  6
Continuous
 62
     7
370
    15
100
AcDbLine
 10
149.2824505577
 20
99.8783209352
 30
0.0
 11
149.1637274185
 21
99.8783209352
 31
0.0
  0
CIRCLE
  5
167
330
1F
100
AcDbEntity
  8
0
  6
Continuous
 62
     7
370
    15
100
AcDbCircle
 10
157.3810752043
 20
99.8783209352
 30
0.0
 40
38.00000000000011
  0
SPLINE
  5
168
330
1F
100
AcDbEntity
  8
0
  6
Continuous
 62
     7
370
    15
100
AcDbSpline
210
0.0
220
0.0
230
1.0
 70
     8
 71
     3
 72
    11
 73
     7
 74
     0
 42
0.000000001
 43
0.00000001
 40
0.0
 40
0.0
 40
0.0
 40
0.0
 40
0.250556568892333
 40
0.4997851834416189
 40
0.7490519119553872
 40
1.0
 40
1.0
 40
1.0
 40
1.0
 10
150.2240218356219
 20
100.6526723975151
 30
0.0
 10
150.241831817842
 20
100.6667620734021
 30
0.0
 10
150.2773573890548
 20
100.6948667496394
 30
0.0
 10
150.3395004471091
 20
100.7228581924015
 30
0.0
 10
150.4052108402074
 20
100.7406700809347
 30
0.0
 10
150.4504387655731
 20
100.7424246674519
 30
0.0
 10
150.4731287400022
 20
100.7433049095343
 30
0.0
  0
SPLINE
  5
169
330
1F
100
AcDbEntity
  8
0
  6
Continuous
 62
     7
370
    15
100
AcDbSpline
210
0.0
220
0.0
230
1.0
 70
     8
 71
     3
 72
    14
 73
    10
 74
     0
 42
0.000000001
 43
0.00000001
 40
0.0
 40
0.0
 40
0.0
 40
0.0
 40
0.1316666806097709
 40
0.2499107596568458
 40
0.3751632215911191
 40
0.5007092004576897
 40
0.7495744554598368
 40
0.8746112171592161
 40
1.0
 40
1.0
 40
1.0
 40
1.0
 10
150.4731287400022
 20
100.7433049095343
 30
0.0
 10
150.4953644900398
 20
100.7418781260956
 30
0.0
 10
150.5375691932927
 20
100.7391700109416
 30
0.0
 10
150.5996830071098
 20
100.7249224177455
 30
0.0
 10
150.6576108710428
 20
100.7010193931598
 30
0.0
 10
150.7302571345689
 20
100.6574369164361
 30
0.0
 10
150.7897639578169
 20
100.5935047035586
 30
0.0
 10
150.8247870598111
 20
100.5160698117213
 30
0.0
 10
150.8367993823268
 20
100.4753602909748
 30
0.0
 10
150.8428139863964
 20
100.4549769180813
 30
0.0
  0
LINE
  5
16A
330
1F
100
AcDbEntity
  8
0
  6
Continuous
 62
     7
370
    15
100
AcDbLine
 10
150.1090086559
 20
100.4549768977
 30
0.0
 11
150.8428140106
 21
100.4549768977
 31
0.0
  0
SPLINE
  5
16B
330
1F
100
AcDbEntity
  8
0
  6
Continuous
 62
     7
370
    15
100
AcDbSpline
210
0.0
220
0.0
230
1.0
 70
     8
 71
     3
 72
    11
 73
     7
 74
     0
 42
0.000000001
 43
0.00000001
 40
0.0
 40
0.0
 40
0.0
 40
0.0
 40
0.269626874072996
 40
0.4993340362791617
 40
0.7496750212825929
 40
1.0
 40
1.0
 40
1.0
 40
1.0
 10
150.1090086478548
 20
100.4549769180813
 30
0.0
 10
150.1155489459404
 20
100.474768107964
 30
0.0
 10
150.127661215731
 20
100.5114202954021
 30
0.0
 10
150.1523549377342
 20
100.563856036834
 30
0.0
 10
150.1824652483001
 20
100.6120293359175
 30
0.0
 10
150.2101699350875
 20
100.6391249990652
 30
0.0
 10
150.2240218356219
 20
100.6526723975151
 30
0.0
  0
SPLINE
  5
16C
330
1F
100
AcDbEntity
  8
0
  6
Continuous
 62
     7
370
    15
100
AcDbSpline
210
0.0
220
0.0
230
1.0
 70
     8
 71
     3
 72
    14
 73
    10
 74
     0
 42
0.000000001
 43
0.00000001
 40
0.0
 40
0.0
 40
0.0
 40
0.0
 40
0.0635828018608776
 40
0.1263470953433781
 40
0.2520629776181411
 40
0.5005401285224528
 40
0.7494245064836749
 40
0.8664759083683556
 40
1.0
 40
1.0
 40
1.0
 40
1.0
 10
163.2917990291315
 20
100.2424410273228
 30
0.0
 10
163.2915437243369
 20
100.2332747467784
 30
0.0
 10
163.2910364013143
 20
100.2150601842241
 30
0.0
 10
163.2851084577353
 20
100.1791436033452
 30
0.0
 10
163.2645409157103
 20
100.1190138577674
 30
0.0
 10
163.2062532514101
 20
100.0475112276731
 30
0.0
 10
163.1289484178034
 20
100.0005209332332
 30
0.0
 10
163.0586984795951
 20
99.98337114089429
 30
0.0
 10
163.0226696890184
 20
99.98122654558031
 30
0.0
 10
163.0034710376785
 20
99.98008375568813
 30
0.0
  0
SPLINE
  5
16D
330
1F
100
AcDbEntity
  8
0
  6
Continuous
 62
     7
370
    15
100
AcDbSpline
210
0.0
220
0.0
230
1.0
 70
     8
 71
     3
 72
    13
 73
     9
 74
     0
 42
0.000000001
 43
0.00000001
 40
0.0
 40
0.0
 40
0.0
 40
0.0
 40
0.1262775900749379
 40
0.251627852167862
 40
0.5010460447790813
 40
0.7501679632446662
 40
0.8748298362314629
 40
0.9999999999999999
 40
0.9999999999999999
 40
0.9999999999999999
 40
0.9999999999999999
 10
163.0034710376785
 20
99.98008375568813
 30
0.0
 10
162.9852891168766
 20
99.98084935657084
 30
0.0
 10
162.949058795432
 20
99.98237493609463
 30
0.0
 10
162.8788173851291
 20
100.000722546762
 30
0.0
 10
162.8000650165273
 20
100.0476531098706
 30
0.0
 10
162.7422457311221
 20
100.119568324125
 30
0.0
 10
162.7185591162699
 20
100.1883470133219
 30
0.0
 10
162.7162832796596
 20
100.2243852490315
 30
0.0
 10
162.7151430462255
 20
100.2424410273228
 30
0.0
  0
SPLINE
  5
16E
330
1F
100
AcDbEntity
  8
0
  6
Continuous
 62
     7
370
    15
100
AcDbSpline
210
0.0
220
0.0
230
1.0
 70
     8
 71
     3
 72
    14
 73
    10
 74
     0
 42
0.000000001
 43
0.00000001
 40
0.0
 40
0.0
 40
0.0
 40
0.0
 40
0.0633957591346209
 40
0.1262824200385382
 40
0.2516974594761143
 40
0.5014600385359637
 40
0.7502100015678913
 40
0.8666177855162203
 40
1.0
 40
1.0
 40
1.0
 40
1.0
 10
162.7151430462255
 20
100.2424410273228
 30
0.0
 10
162.7154465035405
 20
100.2514615963075
 30
0.0
 10
162.7160509812633
 20
100.2694302947989
 30
0.0
 10
162.7207630186163
 20
100.3050103065626
 30
0.0
 10
162.7393878856426
 20
100.3650063430121
 30
0.0
 10
162.7924582097291
 20
100.4393640524741
 30
0.0
 10
162.8693458756133
 20
100.4864016800837
 30
0.0
 10
162.9387224302039
 20
100.5025796718064
 30
0.0
 10
162.9741944788368
 20
100.5047170282801
 30
0.0
 10
162.9931357512202
 20
100.5058583283377
 30
0.0
  0
SPLINE
  5
16F
330
1F
100
AcDbEntity
  8
0
  6
Continuous
 62
     7
370
    15
100
AcDbSpline
210
0.0
220
0.0
230
1.0
 70
     8
 71
     3
 72
    13
 73
     9
 74
     0
 42
0.000000001
 43
0.00000001
 40
0.0
 40
0.0
 40
0.0
 40
0.0
 40
0.1255483022847488
 40
0.2505679620204465
 40
0.5001267090174752
 40
0.7498928547246967
 40
0.8746989716031549
 40
1.0
 40
1.0
 40
1.0
 40
1.0
 10
162.9931357512202
 20
100.5058583283377
 30
0.0
 10
163.0115885332029
 20
100.5050194080414
 30
0.0
 10
163.0484163985813
 20
100.5033450998658
 30
0.0
 10
163.1202423987588
 20
100.485855421334
 30
0.0
 10
163.201932261833
 20
100.439970954982
 30
0.0
 10
163.2626509827512
 20
100.3677269906745
 30
0.0
 10
163.2885116388412
 20
100.2978188978398
 30
0.0
 10
163.2907017877473
 20
100.2609246529144
 30
0.0
 10
163.2917990291315
 20
100.2424410273228
 30
0.0
  0
SPLINE
  5
170
330
1F
100
AcDbEntity
  8
0
  6
Continuous
 62
     7
370
    15
100
AcDbSpline
210
0.0
220
0.0
230
1.0
 70
     8
 71
     3
 72
    16
 73
    12
 74
     0
 42
0.000000001
 43
0.00000001
 40
0.0
 40
0.0
 40
0.0
 40
0.0
 40
0.0632254523199625
 40
0.125723652145534
 40
0.2507446009546112
 40
0.3756559636651009
 40
0.5008190511353833
 40
0.625570200588363
 40
0.75048919459509
 40
0.8673499324129984
 40
1.0
 40
1.0
 40
1.0
 40
1.0
 10
151.656916550499
 20
100.3630193693366
 30
0.0
 10
151.657324852346
 20
100.3757807030196
 30
0.0
 10
151.6581367595367
 20
100.4011565827959
 30
0.0
 10
151.6656363122149
 20
100.4513219402598
 30
0.0
 10
151.6855195118942
 20
100.5116942865809
 30
0.0
 10
151.7227723031979
 20
100.5779921546729
 30
0.0
 10
151.7711866213421
 20
100.6367521641949
 30
0.0
 10
151.8312451976455
 20
100.6835200331474
 30
0.0
 10
151.8973004183213
 20
100.7176014998069
 30
0.0
 10
151.9705503495624
 20
100.7380526116086
 30
0.0
 10
152.020814771218
 20
100.7414818090442
 30
0.0
 10
152.047537377155
 20
100.7433049095343
 30
0.0
  0
SPLINE
  5
171
330
1F
100
AcDbEntity
  8
0
  6
Continuous
 62
     7
370
    15
100
AcDbSpline
210
0.0
220
0.0
230
1.0
 70
     8
 71
     3
 72
    14
 73
    10
 74
     0
 42
0.000000001
 43
0.00000001
 40
0.0
 40
0.0
 40
0.0
 40
0.0
 40
0.1258547236406163
 40
0.2509239182955323
 40
0.4999949889167106
 40
0.6249124345451988
 40
0.7499194758481604
 40
0.8672113698674159
 40
1.0
 40
1.0
 40
1.0
 40
1.0
 10
152.047537377155
 20
100.7433049095343
 30
0.0
 10
152.073102306411
 20
100.7421389871296
 30
0.0
 10
152.1240726000506
 20
100.7398144194871
 30
0.0
 10
152.2224535760422
 20
100.7121198325216
 30
0.0
 10
152.309708505761
 20
100.6549616575301
 30
0.0
 10
152.3752209491611
 20
100.577136747052
 30
0.0
 10
152.41143830313
 20
100.5112947282581
 30
0.0
 10
152.4323514168431
 20
100.4373505988529
 30
0.0
 10
152.4354518797877
 20
100.3865490550212
 30
0.0
 10
152.4370981744306
 20
100.3595742738505
 30
0.0
  0
SPLINE
  5
172
330
1F
100
AcDbEntity
  8
0
  6
Continuous
 62
     7
370
    15
100
AcDbSpline
210
0.0
220
0.0
230
1.0
 70
     8
 71
     3
 72
    16
 73
    12
 74
     0
 42
0.000000001
 43
0.00000001
 40
0.0
 40
0.0
 40
0.0
 40
0.0
 40
0.0632636535590584
 40
0.126009436577183
 40
0.251388016521703
 40
0.3761539753705988
 40
0.5009215959868366
 40
0.6257442647998293
 40
0.7507253346989744
 40
0.867352015389599
 40
1.0
 40
1.0
 40
1.0
 40
1.0
 10
152.4370981744306
 20
100.3595742738505
 30
0.0
 10
152.4366737859853
 20
100.3467736109374
 30
0.0
 10
152.4358284831001
 20
100.321277070179
 30
0.0
 10
152.4295280224035
 20
100.2707112600081
 30
0.0
 10
152.4114488069354
 20
100.2094671690973
 30
0.0
 10
152.3748612575867
 20
100.1424019423963
 30
0.0
 10
152.3249332017515
 20
100.0846212963123
 30
0.0
 10
152.2635886254994
 20
100.0393505330749
 30
0.0
 10
152.1969692901361
 20
100.0061485669328
 30
0.0
 10
152.1236329292493
 20
99.9854845519835
 30
0.0
 10
152.0732747434945
 20
99.98195954059915
 30
0.0
 10
152.0464773477746
 20
99.98008375568814
 30
0.0
  0
SPLINE
  5
173
330
1F
100
AcDbEntity
  8
0
  6
Continuous
 62
     7
370
    15
100
AcDbSpline
210
0.0
220
0.0
230
1.0
 70
     8
 71
     3
 72
    17
 73
    13
 74
     0
 42
0.000000001
 43
0.00000001
 40
0.0
 40
0.0
 40
0.0
 40
0.0
 40
0.0630673986719276
 40
0.1257749291691658
 40
0.2508759522411932
 40
0.3755555794980642
 40
0.5005286410637861
 40
0.6253190904960123
 40
0.7506945395440465
 40
0.8129017888612229
 40
0.8752118277994221
 40
1.0
 40
1.0
 40
1.0
 40
1.0
 10
152.0464773477746
 20
99.98008375568814
 30
0.0
 10
152.0337689761096
 20
99.98052575838923
 30
0.0
 10
152.0084247478763
 20
99.98140724168476
 30
0.0
 10
151.9582308576856
 20
99.98820794911607
 30
0.0
 10
151.8975023771402
 20
100.0066077956829
 30
0.0
 10
151.8303669713607
 20
100.0420976665961
 30
0.0
 10
151.7708743506146
 20
100.0894582691264
 30
0.0
 10
151.7228791933974
 20
100.1485965551607
 30
0.0
 10
151.6922540357582
 20
100.2040563191369
 30
0.0
 10
151.674066061543
 20
100.2511678010061
 30
0.0
 10
151.6617197660202
 20
100.3001079777531
 30
0.0
 10
151.6588383544558
 20
100.3378480313569
 30
0.0
 10
151.656916550499
 20
100.3630193693366
 30
0.0
  0
LINE
  5
174
330
1F
100
AcDbEntity
  8
0
  6
Continuous
 62
     7
370
    15
100
AcDbLine
 10
159.7088996815
 20
100.3192931521
 30
0.0
 11
160.1032307399
 21
100.3192931521
 31
0.0
  0
LWPOLYLINE
  5
175
330
1F
100
AcDbEntity
  8
0
  6
Continuous
 62
     7
370
    15
100
AcDbPolyline
 90
        9
 70
   128
 43
0.0
 10
160.1032307399
 20
100.8938291334
 10
160.0539425882
 20
100.8220169451
 10
160.004653505
 20
100.7502033599
 10
159.9553634906
 20
100.6783882612
 10
159.9060725449
 20
100.6065718238
 10
159.8567806678
 20
100.5347539894
 10
159.8074878594
 20
100.4629349327
 10
159.7581941197
 20
100.3911145953
 10
159.7088996815
 20
100.3192931521
  0
LINE
  5
176
330
1F
100
AcDbEntity
  8
0
  6
Continuous
 62
     7
370
    15
100
AcDbLine
 10
160.1032307399
 20
100.3192931521
 30
0.0
 11
160.1032307399
 21
100.8938291334
 31
0.0
  0
SPLINE
  5
177
330
1F
100
AcDbEntity
  8
0
  6
Continuous
 62
     7
370
    15
100
AcDbSpline
210
0.0
220
0.0
230
1.0
 70
     8
 71
     3
 72
    17
 73
    13
 74
     0
 42
0.000000001
 43
0.00000001
 40
0.0
 40
0.0
 40
0.0
 40
0.0
 40
0.063204245114212
 40
0.1256995825082513
 40
0.2506953323342291
 40
0.3755788482551429
 40
0.5007212602922885
 40
0.6254495230153726
 40
0.7503513964318131
 40
0.8333082829934304
 40
0.9123466118048208
 40
1.0
 40
1.0
 40
1.0
 40
1.0
 10
154.6249988154563
 20
100.3630193693366
 30
0.0
 10
154.6254063234538
 20
100.375771505432
 30
0.0
 10
154.6262167687817
 20
100.4011327478671
 30
0.0
 10
154.6337145923829
 20
100.4512681888971
 30
0.0
 10
154.6535687579681
 20
100.5116154988425
 30
0.0
 10
154.6907954701822
 20
100.577895569201
 30
0.0
 10
154.7391812104235
 20
100.6366663874904
 30
0.0
 10
154.7992209268439
 20
100.6834538596349
 30
0.0
 10
154.859222982121
 20
100.7144316827702
 30
0.0
 10
154.9146577733033
 20
100.7316178813093
 30
0.0
 10
154.9643780991308
 20
100.7403452127163
 30
0.0
 10
154.9979605845294
 20
100.7422849274359
 30
0.0
 10
155.0156196421122
 20
100.7433049095343
 30
0.0
  0
SPLINE
  5
178
330
1F
100
AcDbEntity
  8
0
  6
Continuous
 62
     7
370
    15
100
AcDbSpline
210
0.0
220
0.0
230
1.0
 70
     8
 71
     3
 72
    14
 73
    10
 74
     0
 42
0.000000001
 43
0.00000001
 40
0.0
 40
0.0
 40
0.0
 40
0.0
 40
0.1258534190922502
 40
0.2509247659378601
 40
0.4999927681408903
 40
0.6249066368983962
 40
0.7499101053975767
 40
0.8682620930493263
 40
1.0
 40
1.0
 40
1.0
 40
1.0
 10
155.0156196421122
 20
100.7433049095343
 30
0.0
 10
155.0411988764091
 20
100.7421383357462
 30
0.0
 10
155.0921983917588
 20
100.7398124374367
 30
0.0
 10
155.1906249317009
 20
100.7120789393751
 30
0.0
 10
155.2778870222801
 20
100.6548786977514
 30
0.0
 10
155.3433710224397
 20
100.5770400003632
 30
0.0
 10
155.3796460542151
 20
100.5110158977529
 30
0.0
 10
155.4005193417257
 20
100.4370917418972
 30
0.0
 10
155.4035722713927
 20
100.3863192854789
 30
0.0
 10
155.4051804393879
 20
100.3595742738505
 30
0.0
  0
SPLINE
  5
179
330
1F
100
AcDbEntity
  8
0
  6
Continuous
 62
     7
370
    15
100
AcDbSpline
210
0.0
220
0.0
230
1.0
 70
     8
 71
     3
 72
    16
 73
    12
 74
     0
 42
0.000000001
 43
0.00000001
 40
0.0
 40
0.0
 40
0.0
 40
0.0
 40
0.0722870585289704
 40
0.1439228437912758
 40
0.2868944373167228
 40
0.3940024570934118
 40
0.5009469467792527
 40
0.625761097811018
 40
0.750742208884236
 40
0.8666923226959465
 40
1.0
 40
1.0
 40
1.0
 40
1.0
 10
155.4051804393879
 20
100.3595742738505
 30
0.0
 10
155.4046929158166
 20
100.3449514534154
 30
0.0
 10
155.4037222610379
 20
100.3158375574553
 30
0.0
 10
155.3951255319706
 20
100.2583172739062
 30
0.0
 10
155.3737079188706
 20
100.1960920844852
 30
0.0
 10
155.3360776071573
 20
100.1340394968514
 30
0.0
 10
155.2901950963972
 20
100.0825546922303
 30
0.0
 10
155.2317658391207
 20
100.0394079250943
 30
0.0
 10
155.1652572461522
 20
100.0062347566257
 30
0.0
 10
155.0918949672704
 20
99.98553520661385
 30
0.0
 10
155.0415076708763
 20
99.98198335280506
 30
0.0
 10
155.0145596127319
 20
99.98008375568813
 30
0.0
  0
SPLINE
  5
17A
330
1F
100
AcDbEntity
  8
0
  6
Continuous
 62
     7
370
    15
100
AcDbSpline
210
0.0
220
0.0
230
1.0
 70
     8
 71
     3
 72
    17
 73
    13
 74
     0
 42
0.000000001
 43
0.00000001
 40
0.0
 40
0.0
 40
0.0
 40
0.0
 40
0.0630727286635472
 40
0.125776872469831
 40
0.2508801067935873
 40
0.3755592674604115
 40
0.5005307814964671
 40
0.6253247046739684
 40
0.7506990009346297
 40
0.8217734244223012
 40
0.8752101093639593
 40
1.0
 40
1.0
 40
1.0
 40
1.0
 10
155.0145596127319
 20
99.98008375568813
 30
0.0
 10
155.0018431825163
 20
99.98052519219506
 30
0.0
 10
154.9764846344497
 20
99.98140548553916
 30
0.0
 10
154.926263343206
 20
99.98821708656646
 30
0.0
 10
154.8655071174471
 20
100.0066347223171
 30
0.0
 10
154.7983585241707
 20
100.0421561677546
 30
0.0
 10
154.7388661459078
 20
100.0895389613041
 30
0.0
 10
154.6909106483727
 20
100.1486965366322
 30
0.0
 10
154.6593987688322
 20
100.2056931665425
 30
0.0
 10
154.6416121206868
 20
100.2529693982258
 30
0.0
 10
154.6296514899336
 20
100.3019318839979
 30
0.0
 10
154.6269149051871
 20
100.3378619885847
 30
0.0
 10
154.6249988154563
 20
100.3630193693366
 30
0.0
  0
INSERT
  5
186
330
1F
100
AcDbEntity
  8
0
  6
Continuous
 62
     7
370
     0
100
AcDbBlockReference
  2
SW_CENTERMARKSYMBOL_1
 10
157.3810752043
 20
99.8783209352
 30
0.0
  0
LINE
  5
187
330
1F
100
AcDbEntity
  8
0
  6
Continuous
 62
     7
370
    15
100
AcDbLine
 10
286.4331474679
 20
98.0964164189
 30
0.0
 11
286.4331474679
 21
100.2393346707
 31
0.0
  0
LINE
  5
188
330
1F
100
AcDbEntity
  8
0
  6
Continuous
 62
     7
370
    15
100
AcDbLine
 10
210.4331474679
 20
100.2393346707
 30
0.0
 11
210.4331474679
 21
98.0964164189
 31
0.0
  0
LWPOLYLINE
  5
189
330
1F
100
AcDbEntity
  8
0
  6
Continuous
 62
     7
370
    15
100
AcDbPolyline
 90
      143
 70
   128
 43
0.0
 10
282.0410360916
 20
91.1054306727
 10
281.2236886213
 20
90.348720558
 10
280.3421521268
 20
89.6113717849
 10
279.3981522572
 20
88.8948277482
 10
278.3935369367
 20
88.2004911165
 10
277.3302727468
 20
87.5297210865
 10
276.2104410772
 20
86.8838307219
 10
275.0362340509
 20
86.2640843834
 10
273.8099502333
 20
85.6716952537
 10
272.5339901326
 20
85.1078229622
 10
271.2108515007
 20
84.5735713155
 10
269.8431244434
 20
84.0699861362
 10
268.4334863508
 20
83.598053216
 10
266.9846966556
 20
83.1586963857
 10
265.4995914318
 20
82.7527757069
 10
263.9810778424
 20
82.3810857885
 10
262.4321284491
 20
82.0443542309
 10
260.8557753932
 20
81.7432402019
 10
259.2551044598
 20
81.4783331465
 10
257.6332490374
 20
81.2501516325
 10
255.9933839841
 20
81.0591423361
 10
254.3387194128
 20
80.9056791669
 10
252.6724944071
 20
80.7900625362
 10
250.9979706806
 20
80.7125187691
 10
249.3184261923
 20
80.6731996611
 10
247.6371487293
 20
80.6721821811
 10
245.9574294713
 20
80.7094683211
 10
244.2825565474
 20
80.7849850916
 10
242.6158086002
 20
80.8985846649
 10
240.960448367
 20
81.0500446646
 10
239.3197162933
 20
81.2390686007
 10
237.696824189
 20
81.4652864498
 10
236.0949489417
 20
81.72825538
 10
234.5172262974
 20
82.0274606171
 10
232.9667447223
 20
82.3623164529
 10
231.4465393569
 20
82.7321673914
 10
229.9595860746
 20
83.136289432
 10
228.5087956562
 20
83.5738914868
 10
227.0970080921
 20
84.0441169293
 10
225.7269870228
 20
84.546045271
 10
224.4014143289
 20
85.0786939636
 10
223.1228848811
 20
85.6410203224
 10
221.8939014609
 20
86.2319235671
 10
220.716869861
 20
86.8502469767
 10
219.5940941761
 20
87.4947801543
 10
218.5277722924
 20
88.1642613959
 10
217.5199915848
 20
88.8573801604
 10
216.5727248316
 20
89.5727796354
 10
215.6878263519
 20
90.3090593928
 10
214.867028376
 20
91.0647781303
 10
214.1119376545
 20
91.8384564931
 10
213.4240323129
 20
92.6285799695
 10
212.8046589582
 20
93.4336018555
 10
212.255030043
 20
94.2519462832
 10
211.7762214915
 20
95.0820113048
 10
211.369170594
 20
95.9221720291
 10
211.0346741718
 20
96.770783802
 10
210.7733870173
 20
97.626185426
 10
210.5858206123
 20
98.4867024125
 10
210.4723421271
 20
99.3506502589
 10
210.4331737009
 20
100.2163377468
 10
210.4683920078
 20
101.0820702522
 10
210.5779281064
 20
101.9461530631
 10
210.7615675745
 20
102.8068946969
 10
211.0189509294
 20
103.6626102114
 10
211.349574331
 20
104.5116245032
 10
211.7527905684
 20
105.3522755871
 10
212.2278103269
 20
106.182917849
 10
212.7737037332
 20
107.0019252678
 10
213.3894021751
 20
107.8076945978
 10
214.073700394
 20
108.5986485079
 10
214.8252588442
 20
109.3732386687
 10
215.6426063145
 20
110.1299487834
 10
216.524142809
 20
110.8672975565
 10
217.4681426786
 20
111.5838415932
 10
218.4727579991
 20
112.2781782248
 10
219.536022189
 20
112.9489482548
 10
220.6558538586
 20
113.5948386195
 10
221.8300608849
 20
114.2145849579
 10
223.0563447025
 20
114.8069740876
 10
224.3323048032
 20
115.3708463791
 10
225.6554434351
 20
115.9050980258
 10
227.0231704924
 20
116.4086832051
 10
228.432808585
 20
116.8806161254
 10
229.8815982801
 20
117.3199729557
 10
231.366703504
 20
117.7258936344
 10
232.8852170934
 20
118.0975835529
 10
234.4341664867
 20
118.4343151105
 10
236.0105195426
 20
118.7354291394
 10
237.611190476
 20
119.0003361949
 10
239.2330458984
 20
119.2285177088
 10
240.8729109517
 20
119.4195270052
 10
242.527575523
 20
119.5729901745
 10
244.1938005287
 20
119.6886068051
 10
245.8683242552
 20
119.7661505723
 10
247.5478687435
 20
119.8054696803
 10
249.2291462065
 20
119.8064871602
 10
250.9088654645
 20
119.7692010202
 10
252.5837383884
 20
119.6936842498
 10
254.2504863356
 20
119.5800846764
 10
255.9058465687
 20
119.4286246767
 10
257.5465786425
 20
119.2396007407
 10
259.1694707468
 20
119.0133828915
 10
260.7713459941
 20
118.7504139614
 10
262.3490686384
 20
118.4512087242
 10
263.8995502134
 20
118.1163528884
 10
265.4197555789
 20
117.7465019499
 10
266.9067088612
 20
117.3423799093
 10
268.3574992796
 20
116.9047778545
 10
269.7692868437
 20
116.4345524121
 10
271.1393079129
 20
115.9326240704
 10
272.4648806069
 20
115.3999753777
 10
273.7434100547
 20
114.8376490189
 10
274.9723934749
 20
114.2467457743
 10
276.1494250748
 20
113.6284223646
 10
277.2722007596
 20
112.983889187
 10
278.3385226434
 20
112.3144079455
 10
279.346303351
 20
111.6212891809
 10
280.2935701042
 20
110.9058897059
 10
281.1784685839
 20
110.1696099486
 10
281.9992665598
 20
109.413891211
 10
282.7543572813
 20
108.6402128482
 10
283.4422626229
 20
107.8500893719
 10
284.0616359776
 20
107.0450674858
 10
284.6112648928
 20
106.2267230581
 10
285.0900734443
 20
105.3966580365
 10
285.4971243418
 20
104.5564973123
 10
285.831620764
 20
103.7078855394
 10
286.0929079185
 20
102.8524839153
 10
286.2804743234
 20
101.9919669288
 10
286.3939528087
 20
101.1280190824
 10
286.4331212349
 20
100.2623315946
 10
286.397902928
 20
99.3965990891
 10
286.2883668294
 20
98.5325162782
 10
286.1047273613
 20
97.6717746444
 10
285.8473440064
 20
96.8160591299
 10
285.5167206048
 20
95.9670448381
 10
285.1135043674
 20
95.1263937542
 10
284.6384846089
 20
94.2957514923
 10
284.0925912026
 20
93.4767440736
 10
283.4768927607
 20
92.6709747435
 10
282.7925945418
 20
91.8800208334
 10
282.0410360916
 20
91.1054306727
  0
LWPOLYLINE
  5
18A
330
1F
100
AcDbEntity
  8
0
  6
Continuous
 62
     7
370
    15
100
AcDbPolyline
 90
       62
 70
   128
 43
0.0
 10
282.0410360916
 20
88.9625124209
 10
281.2236886213
 20
88.2058023062
 10
280.3421521268
 20
87.4684535331
 10
279.3981522572
 20
86.7519094964
 10
278.3935369367
 20
86.0575728648
 10
277.3302727468
 20
85.3868028347
 10
276.2104410772
 20
84.7409124701
 10
275.0362340509
 20
84.1211661317
 10
273.8099502333
 20
83.5287770019
 10
272.5339901326
 20
82.9649047105
 10
271.2108515007
 20
82.4306530637
 10
269.8431244434
 20
81.9270678844
 10
268.4334863508
 20
81.4551349642
 10
266.9846966556
 20
81.0157781339
 10
265.4995914318
 20
80.6098574551
 10
263.9810778424
 20
80.2381675367
 10
262.4321284491
 20
79.9014359791
 10
260.8557753932
 20
79.6003219502
 10
259.2551044598
 20
79.3354148947
 10
257.6332490374
 20
79.1072333808
 10
255.9933839841
 20
78.9162240843
 10
254.3387194128
 20
78.7627609151
 10
252.6724944071
 20
78.6471442844
 10
250.9979706806
 20
78.5696005173
 10
249.3184261923
 20
78.5302814093
 10
247.6371487293
 20
78.5292639294
 10
245.9574294713
 20
78.5665500694
 10
244.2825565474
 20
78.6420668398
 10
242.6158086002
 20
78.7556664132
 10
240.960448367
 20
78.9071264129
 10
239.3197162933
 20
79.0961503489
 10
237.696824189
 20
79.3223681981
 10
236.0949489417
 20
79.5853371282
 10
234.5172262974
 20
79.8845423653
 10
232.9667447223
 20
80.2193982012
 10
231.4465393569
 20
80.5892491397
 10
229.9595860746
 20
80.9933711803
 10
228.5087956562
 20
81.4309732351
 10
227.0970080921
 20
81.9011986775
 10
225.7269870228
 20
82.4031270192
 10
224.4014143289
 20
82.9357757119
 10
223.1228848811
 20
83.4981020706
 10
221.8939014609
 20
84.0890053153
 10
220.716869861
 20
84.707328725
 10
219.5940941761
 20
85.3518619026
 10
218.5277722924
 20
86.0213431441
 10
217.5199915848
 20
86.7144619087
 10
216.5727248316
 20
87.4298613836
 10
215.6878263519
 20
88.166141141
 10
214.867028376
 20
88.9218598785
 10
214.1119376545
 20
89.6955382414
 10
213.4240323129
 20
90.4856617177
 10
212.8046589582
 20
91.2906836038
 10
212.255030043
 20
92.1090280314
 10
211.7762214915
 20
92.939093053
 10
211.369170594
 20
93.7792537773
 10
211.0346741718
 20
94.6278655502
 10
210.7733870173
 20
95.4832671743
 10
210.5858206123
 20
96.3437841607
 10
210.4723421271
 20
97.2077320071
 10
210.4331737009
 20
98.073419495
 10
210.4331474679
 20
98.0964164189
  0
ARC
  5
18B
330
1F
100
AcDbEntity
  8
0
  6
Continuous
 62
     7
370
    15
100
AcDbCircle
 10
273.3623225927
 20
98.7586848574
 30
0.0
 40
13.08759192528251
100
AcDbArc
 50
311.5386647923
 51
357.0994359134
  0
LINE
  5
18C
330
1F
100
AcDbEntity
  8
0
  6
Continuous
 62
     7
370
    15
100
AcDbLine
 10
285.5226267453
 20
152.2411264612
 30
0.0
 11
285.0259599305
 21
152.2411264612
 31
0.0
  0
ARC
  5
18D
330
1F
100
AcDbEntity
  8
0
  6
Continuous
 62
     7
370
    15
100
AcDbCircle
 10
247.5226267453
 20
62.2244597945
 30
0.0
 40
97.51666666666692
100
AcDbArc
 50
67.3820936276
 51
90.5082174255
  0
LINE
  5
18E
330
1F
100
AcDbEntity
  8
0
  6
Continuous
 62
     7
370
    15
100
AcDbLine
 10
246.6576586478
 20
160.2372902732
 30
0.0
 11
246.6576586478
 21
159.7372902732
 31
0.0
  0
ARC
  5
18F
330
1F
100
AcDbEntity
  8
0
  6
Continuous
 62
     7
370
    15
100
AcDbCircle
 10
247.5226267453
 20
62.7244597945
 30
0.0
 40
97.51666666666661
100
AcDbArc
 50
90.508217436
 51
90.5775663527
  0
LINE
  5
190
330
1F
100
AcDbEntity
  8
0
  6
Continuous
 62
     7
370
    15
100
AcDbLine
 10
246.5396356475
 20
159.7361719437
 30
0.0
 11
246.5396356475
 21
160.2361719437
 31
0.0
  0
ARC
  5
191
330
1F
100
AcDbEntity
  8
0
  6
Continuous
 62
     7
370
    15
100
AcDbCircle
 10
247.5226267453
 20
62.2244597945
 30
0.0
 40
97.51666666666692
100
AcDbArc
 50
90.5775683212
 51
112.6179063724
  0
LINE
  5
192
330
1F
100
AcDbEntity
  8
0
  6
Continuous
 62
     7
370
    15
100
AcDbLine
 10
210.0192935601
 20
152.2411264612
 30
0.0
 11
209.5226267453
 21
152.2411264612
 31
0.0
  0
LINE
  5
193
330
1F
100
AcDbEntity
  8
0
  6
Continuous
 62
     7
370
    15
100
AcDbLine
 10
209.5226267453
 20
152.2411264612
 30
0.0
 11
209.5226267453
 21
154.7411264612
 31
0.0
  0
ARC
  5
194
330
1F
100
AcDbEntity
  8
0
  6
Continuous
 62
     7
370
    15
100
AcDbCircle
 10
247.5226267453
 20
62.2244597945
 30
0.0
 40
100.0166666666669
100
AcDbArc
 50
67.6702396449
 51
112.3297603551
  0
LINE
  5
195
330
1F
100
AcDbEntity
  8
0
  6
Continuous
 62
     7
370
    15
100
AcDbLine
 10
285.5226267453
 20
154.7411264612
 30
0.0
 11
285.5226267453
 21
152.2411264612
 31
0.0
  0
SPLINE
  5
196
330
1F
100
AcDbEntity
  8
0
  6
Continuous
 62
     7
370
    15
100
AcDbSpline
210
0.0
220
0.0
230
1.0
 70
     8
 71
     3
 72
    14
 73
    10
 74
     0
 42
0.000000001
 43
0.00000001
 40
0.0
 40
0.0
 40
0.0
 40
0.0
 40
0.0171015217173972
 40
0.0827475280921946
 40
0.2139995919581456
 40
0.4753419294760451
 40
0.736840470038251
 40
0.8683158875846804
 40
1.0
 40
1.0
 40
1.0
 40
1.0
 10
246.5396296830013
 20
159.7361718836747
 30
0.0
 10
246.539734549371
 20
159.7361728878179
 30
0.0
 10
246.5402419564314
 20
159.7361777464715
 30
0.0
 10
246.5423539772305
 20
159.736192706781
 30
0.0
 10
246.5530477750357
 20
159.7362615522797
 30
0.0
 10
246.5842652761779
 20
159.7364473478793
 30
0.0
 10
246.6367612031741
 20
159.7367574033771
 30
0.0
 10
246.6882622150957
 20
159.7370586779851
 30
0.0
 10
246.7162498622675
 20
159.7372110806096
 30
0.0
 10
246.7302547834533
 20
159.7372873423521
 30
0.0
  0
LINE
  5
197
330
1F
100
AcDbEntity
  8
0
  6
Continuous
 62
     7
370
    15
100
AcDbLine
 10
246.5558799504
 20
159.73571448
 30
0.0
 11
246.7302547835
 21
159.7372873424
 31
0.0
  0
LINE
  5
198
330
1F
100
AcDbEntity
  8
0
  6
Continuous
 62
     7
370
    15
100
AcDbLine
 10
246.5558799504
 20
159.7352188799
 30
0.0
 11
246.5558799504
 21
159.73571448
 31
0.0
  0
ARC
  5
199
330
1F
100
AcDbEntity
  8
0
  6
Continuous
 62
     7
370
    15
100
AcDbCircle
 10
247.5226267453
 20
62.2244597945
 30
0.0
 40
97.51555125598668
100
AcDbArc
 50
90.0
 51
90.5680265132
  0
LINE
  5
19A
330
1F
100
AcDbEntity
  8
0
  6
Continuous
 62
     7
370
    15
100
AcDbLine
 10
247.5226267453
 20
159.7405066263
 30
0.0
 11
247.5226267453
 21
159.7400110505
 31
0.0
  0
ARC
  5
19B
330
1F
100
AcDbEntity
  8
0
  6
Continuous
 62
     7
370
    15
100
AcDbCircle
 10
247.5226267453
 20
62.2244597945
 30
0.0
 40
97.5160468317613
100
AcDbArc
 50
90.0
 51
90.2053762321
  0
SPLINE
  5
19C
330
1F
100
AcDbEntity
  8
0
  6
Continuous
 62
     7
370
    15
100
AcDbSpline
210
0.0
220
0.0
230
1.0
 70
     8
 71
     3
 72
    10
 73
     6
 74
     0
 42
0.000000001
 43
0.00000001
 40
0.0
 40
0.0
 40
0.0
 40
0.0
 40
0.5001105948863686
 40
0.7501594835573767
 40
1.0
 40
1.0
 40
1.0
 40
1.0
 10
247.1730820570911
 20
159.7398801556612
 30
0.0
 10
247.129665790878
 20
159.7397100058354
 30
0.0
 10
247.0645419479253
 20
159.739454783277
 30
0.0
 10
246.9777135449167
 20
159.73901523397
 30
0.0
 10
246.9349918231473
 20
159.7387840671564
 30
0.0
 10
246.9136398662524
 20
159.7386685319291
 30
0.0
  0
SPLINE
  5
19D
330
1F
100
AcDbEntity
  8
0
  6
Continuous
 62
     7
370
    15
100
AcDbSpline
210
0.0
220
0.0
230
1.0
 70
     8
 71
     3
 72
    13
 73
     9
 74
     0
 42
0.000000001
 43
0.00000001
 40
0.0
 40
0.0
 40
0.0
 40
0.0
 40
0.1368676031948207
 40
0.2509503932897792
 40
0.5009518309122883
 40
0.7501964608676027
 40
0.8669352005888336
 40
1.0
 40
1.0
 40
1.0
 40
1.0
 10
246.9136398662524
 20
159.7386685319291
 30
0.0
 10
246.8942817212847
 20
159.7385657345266
 30
0.0
 10
246.858788047255
 20
159.7383772527533
 30
0.0
 10
246.7933918023245
 20
159.7380243015504
 30
0.0
 10
246.7262914477432
 20
159.7376699314972
 30
0.0
 10
246.6795922839342
 20
159.7374071518168
 30
0.0
 10
246.6609115575849
 20
159.737308825645
 30
0.0
 10
246.6587788283921
 20
159.7372966282527
 30
0.0
 10
246.6576427708999
 20
159.7372901309726
 30
0.0
  0
LINE
  5
19E
330
1F
100
AcDbEntity
  8
0
  6
Continuous
 62
     7
370
    15
100
AcDbLine
 10
246.6576586826
 20
159.7372902736
 30
0.0
 11
246.6576427709
 21
159.737290131
 31
0.0
  0
LINE
  5
19F
330
1F
100
AcDbEntity
  8
0
  6
Continuous
 62
     7
370
    15
100
AcDbLine
 10
210.0192935601
 20
152.2411264612
 30
0.0
 11
285.0259599305
 21
152.2411264612
 31
0.0
  0
ARC
  5
1A0
330
1F
100
AcDbEntity
  8
0
  6
Continuous
 62
     7
370
    15
100
AcDbCircle
 10
247.5226267453
 20
62.2244597945
 30
0.0
 40
97.17979501696594
100
AcDbArc
 50
90.0
 51
90.3799892577
  0
LINE
  5
1A1
330
1F
100
AcDbEntity
  8
0
  6
Continuous
 62
     7
370
    15
100
AcDbLine
 10
246.878128882
 20
159.4445032258
 30
0.0
 11
246.878128882
 21
159.4021176282
 31
0.0
  0
ARC
  5
1A2
330
1F
100
AcDbEntity
  8
0
  6
Continuous
 62
     7
370
    15
100
AcDbCircle
 10
247.5226267453
 20
62.2244597945
 30
0.0
 40
97.22217968279354
100
AcDbArc
 50
90.3798235964
 51
90.459788026
  0
LINE
  5
1A3
330
1F
100
AcDbEntity
  8
0
  6
Continuous
 62
     7
370
    15
100
AcDbLine
 10
246.7424451213
 20
159.4011230228
 30
0.0
 11
246.7424451213
 21
159.443509054
 31
0.0
  0
ARC
  5
1A4
330
1F
100
AcDbEntity
  8
0
  6
Continuous
 62
     7
370
    15
100
AcDbCircle
 10
247.5226267453
 20
62.2244597945
 30
0.0
 40
97.17979501696594
100
AcDbArc
 50
90.4599885655
 51
90.6999924935
  0
LINE
  5
1A5
330
1F
100
AcDbEntity
  8
0
  6
Continuous
 62
     7
370
    15
100
AcDbLine
 10
246.3353938393
 20
159.4393902338
 30
0.0
 11
246.3353938393
 21
159.397002406
 31
0.0
  0
ARC
  5
1A6
330
1F
100
AcDbEntity
  8
0
  6
Continuous
 62
     7
370
    15
100
AcDbCircle
 10
247.5226267453
 20
62.2244597945
 30
0.0
 40
97.22217968279352
100
AcDbArc
 50
90.6996873119
 51
90.7796562588
  0
LINE
  5
1A7
330
1F
100
AcDbEntity
  8
0
  6
Continuous
 62
     7
370
    15
100
AcDbLine
 10
246.1997100786
 20
159.3852819665
 30
0.0
 11
246.1997100786
 21
159.4376384987
 31
0.0
  0
ARC
  5
1A8
330
1F
100
AcDbEntity
  8
0
  6
Continuous
 62
     7
370
    15
100
AcDbCircle
 10
247.5226267453
 20
62.2244597945
 30
0.0
 40
97.16982800040341
100
AcDbArc
 50
90.0
 51
90.7800763361
  0
LINE
  5
1A9
330
1F
100
AcDbEntity
  8
0
  6
Continuous
 62
     7
370
    15
100
AcDbLine
 10
247.5226267453
 20
159.4042548115
 30
0.0
 11
247.5226267453
 21
159.3942877949
 31
0.0
  0
SPLINE
  5
1AA
330
1F
100
AcDbEntity
  8
0
  6
Continuous
 62
     7
370
    15
100
AcDbSpline
210
0.0
220
0.0
230
1.0
 70
     8
 71
     3
 72
    14
 73
    10
 74
     0
 42
0.000000001
 43
0.00000001
 40
0.0
 40
0.0
 40
0.0
 40
0.0
 40
0.1256196928281495
 40
0.2511781308367692
 40
0.3761959231298722
 40
0.5012291184739306
 40
0.7860167181163521
 40
0.8914371876381701
 40
1.0
 40
1.0
 40
1.0
 40
1.0
 10
247.2173382837204
 20
159.5186770826519
 30
0.0
 10
247.2322435581662
 20
159.5180370248343
 30
0.0
 10
247.2620468389307
 20
159.5167572213049
 30
0.0
 10
247.3040784073776
 20
159.5145495977079
 30
0.0
 10
247.3413526348964
 20
159.5119414945104
 30
0.0
 10
247.3825929588647
 20
159.5075366671784
 30
0.0
 10
247.4073921183473
 20
159.5026382253685
 30
0.0
 10
247.4188047620073
 20
159.4976745159252
 30
0.0
 10
247.4201708501684
 20
159.4954981939864
 30
0.0
 10
247.420863924746
 20
159.4943940533815
 30
0.0
  0
SPLINE
  5
1AB
330
1F
100
AcDbEntity
  8
0
  6
Continuous
 62
     7
370
    15
100
AcDbSpline
210
0.0
220
0.0
230
1.0
 70
     8
 71
     3
 72
    13
 73
     9
 74
     0
 42
0.000000001
 43
0.00000001
 40
0.0
 40
0.0
 40
0.0
 40
0.0
 40
0.126066210954258
 40
0.251417683789265
 40
0.5007104231128884
 40
0.7500806804298084
 40
0.8747865459501678
 40
1.0
 40
1.0
 40
1.0
 40
1.0
 10
247.420863924746
 20
159.4943940533815
 30
0.0
 10
247.4197239773021
 20
159.492720080245
 30
0.0
 10
247.417450545398
 20
159.4893816246389
 30
0.0
 10
247.3913437583192
 20
159.4828403254797
 30
0.0
 10
247.3242976548058
 20
159.4755245575095
 30
0.0
 10
247.2245692525739
 20
159.4704128747465
 30
0.0
 10
247.1343387030196
 20
159.468275774817
 30
0.0
 10
247.0879403481415
 20
159.4678187088609
 30
0.0
 10
247.0646940529512
 20
159.4675897117302
 30
0.0
  0
LINE
  5
1AC
330
1F
100
AcDbEntity
  8
0
  6
Continuous
 62
     7
370
    15
100
AcDbLine
 10
247.064694053
 20
159.5285198754
 30
0.0
 11
247.064694053
 21
159.4675897117
 31
0.0
  0
SPLINE
  5
1AD
330
1F
100
AcDbEntity
  8
0
  6
Continuous
 62
     7
370
    15
100
AcDbSpline
210
0.0
220
0.0
230
1.0
 70
     8
 71
     3
 72
    11
 73
     7
 74
     0
 42
0.000000001
 43
0.00000001
 40
0.0
 40
0.0
 40
0.0
 40
0.0
 40
0.2507646133390471
 40
0.5001606514640707
 40
0.749260014867328
 40
1.0
 40
1.0
 40
1.0
 40
1.0
 10
247.0646940529512
 20
159.5285198754397
 30
0.0
 10
247.0347590214831
 20
159.5282930016874
 30
0.0
 10
246.9750523322444
 20
159.5278404923713
 30
0.0
 10
246.8874364063585
 20
159.5260307827632
 30
0.0
 10
246.8031949125248
 20
159.5233461847517
 30
0.0
 10
246.7539153902505
 20
159.5206944701434
 30
0.0
 10
246.7291947540729
 20
159.5193642609804
 30
0.0
  0
SPLINE
  5
1AE
330
1F
100
AcDbEntity
  8
0
  6
Continuous
 62
     7
370
    15
100
AcDbSpline
210
0.0
220
0.0
230
1.0
 70
     8
 71
     3
 72
    14
 73
    10
 74
     0
 42
0.000000001
 43
0.00000001
 40
0.0
 40
0.0
 40
0.0
 40
0.0
 40
0.1260764782366613
 40
0.251273567662519
 40
0.5008313483867993
 40
0.625236101076129
 40
0.7498318840819236
 40
0.8678458740086942
 40
1.0
 40
1.0
 40
1.0
 40
1.0
 10
246.7291947540729
 20
159.5193642609804
 30
0.0
 10
246.7145485097195
 20
159.5184374844599
 30
0.0
 10
246.6853581791915
 20
159.5165903957247
 30
0.0
 10
246.6333958271483
 20
159.5124444194605
 30
0.0
 10
246.5921630481714
 20
159.5077234833811
 30
0.0
 10
246.5633376754406
 20
159.5026658690553
 30
0.0
 10
246.5496045629126
 20
159.4988087335226
 30
0.0
 10
246.5414602401744
 20
159.4948221295818
 30
0.0
 10
246.5397977234785
 20
159.4921488864358
 30
0.0
 10
246.5389194803016
 20
159.4907367156232
 30
0.0
  0
SPLINE
  5
1AF
330
1F
100
AcDbEntity
  8
0
  6
Continuous
 62
     7
370
    15
100
AcDbSpline
210
0.0
220
0.0
230
1.0
 70
     8
 71
     3
 72
    13
 73
     9
 74
     0
 42
0.000000001
 43
0.00000001
 40
0.0
 40
0.0
 40
0.0
 40
0.0
 40
0.1254966003729109
 40
0.2507219466734775
 40
0.4999601461221748
 40
0.749267775139304
 40
0.8745235988630231
 40
1.0
 40
1.0
 40
1.0
 40
1.0
 10
246.5389194803016
 20
159.4907367156232
 30
0.0
 10
246.5394704739059
 20
159.4894497287118
 30
0.0
 10
246.5405712701719
 20
159.4868785366412
 30
0.0
 10
246.5511026083539
 20
159.4818301942595
 30
0.0
 10
246.5789137460028
 20
159.4757985642374
 30
0.0
 10
246.6278652335587
 20
159.4705712474534
 30
0.0
 10
246.6776500499641
 20
159.467090722565
 30
0.0
 10
246.7052915609114
 20
159.4655588092172
 30
0.0
 10
246.7191244749597
 20
159.4647921787059
 30
0.0
  0
SPLINE
  5
1B0
330
1F
100
AcDbEntity
  8
0
  6
Continuous
 62
     7
370
    15
100
AcDbSpline
210
0.0
220
0.0
230
1.0
 70
     8
 71
     3
 72
    12
 73
     8
 74
     0
 42
0.000000001
 43
0.00000001
 40
0.0
 40
0.0
 40
0.0
 40
0.0
 40
0.2508587756613259
 40
0.4999216619520138
 40
0.7489441437021408
 40
0.874407216240155
 40
1.0
 40
1.0
 40
1.0
 40
1.0
 10
246.7191244749597
 20
159.4647921787059
 30
0.0
 10
246.7427898934303
 20
159.4637054032455
 30
0.0
 10
246.7899513104524
 20
159.461539632513
 30
0.0
 10
246.8701550774247
 20
159.4594746139827
 30
0.0
 10
246.9405038907205
 20
159.4585410325636
 30
0.0
 10
246.9982469985618
 20
159.458398074801
 30
0.0
 10
247.0273462688663
 20
159.4584748179946
 30
0.0
 10
247.0419034212738
 20
159.4585132094165
 30
0.0
  0
SPLINE
  5
1B1
330
1F
100
AcDbEntity
  8
0
  6
Continuous
 62
     7
370
    15
100
AcDbSpline
210
0.0
220
0.0
230
1.0
 70
     8
 71
     3
 72
    16
 73
    12
 74
     0
 42
0.000000001
 43
0.00000001
 40
0.0
 40
0.0
 40
0.0
 40
0.0
 40
0.0632137351553951
 40
0.1260720339282645
 40
0.25133036566449
 40
0.3763622231923089
 40
0.5017496303862323
 40
0.661714738287197
 40
0.818300192334882
 40
0.9044599829568079
 40
1.0
 40
1.0
 40
1.0
 40
1.0
 10
247.0419034212738
 20
159.4585132094165
 30
0.0
 10
247.0582954437679
 20
159.4586314326148
 30
0.0
 10
247.0909873201608
 20
159.4588672142693
 30
0.0
 10
247.1557547194077
 20
159.4597670113884
 30
0.0
 10
247.2341884641043
 20
159.4617930380685
 30
0.0
 10
247.3215295776139
 20
159.4653437870857
 30
0.0
 10
247.4072559287231
 20
159.4702720402593
 30
0.0
 10
247.4819476101266
 20
159.4769454403195
 30
0.0
 10
247.5210777509731
 20
159.4841461575788
 30
0.0
 10
247.5362174706794
 20
159.4903881607438
 30
0.0
 10
247.5384259627607
 20
159.4937398748375
 30
0.0
 10
247.5395872153443
 20
159.4955022477632
 30
0.0
  0
SPLINE
  5
1B2
330
1F
100
AcDbEntity
  8
0
  6
Continuous
 62
     7
370
    15
100
AcDbSpline
210
0.0
220
0.0
230
1.0
 70
     8
 71
     3
 72
    15
 73
    11
 74
     0
 42
0.000000001
 43
0.00000001
 40
0.0
 40
0.0
 40
0.0
 40
0.0
 40
0.0631190539734123
 40
0.1260621658997755
 40
0.2514125422460449
 40
0.2624570810584566
 40
0.5011508342230345
 40
0.7501359147095142
 40
0.8677789984753423
 40
1.0
 40
1.0
 40
1.0
 40
1.0
 10
247.5395872153443
 20
159.4955022477632
 30
0.0
 10
247.5393486812682
 20
159.4963208688409
 30
0.0
 10
247.5388722780209
 20
159.49795582912
 30
0.0
 10
247.5356681109007
 20
159.5011901223565
 30
0.0
 10
247.5293108589186
 20
159.5037137948387
 30
0.0
 10
247.512337343489
 20
159.5083389443627
 30
0.0
 10
247.477330289959
 20
159.5142393435459
 30
0.0
 10
247.4055916993099
 20
159.5200591614017
 30
0.0
 10
247.3329320181954
 20
159.5236739285534
 30
0.0
 10
247.2935595922276
 20
159.5251338132373
 30
0.0
 10
247.2727248188432
 20
159.52590634289
 30
0.0
  0
ARC
  5
1B3
330
1F
100
AcDbEntity
  8
0
  6
Continuous
 62
     7
370
    15
100
AcDbCircle
 10
250.026610465
 20
138.2113950061
 30
0.0
 40
21.49167931266572
100
AcDbArc
 50
97.3619669337
 51
97.5108772758
  0
ARC
  5
1B4
330
1F
100
AcDbEntity
  8
0
  6
Continuous
 62
     7
370
    15
100
AcDbCircle
 10
247.5226267453
 20
62.2244597945
 30
0.0
 40
97.46699031462204
100
AcDbArc
 50
90.0
 51
90.3078307621
  0
SPLINE
  5
1B5
330
1F
100
AcDbEntity
  8
0
  6
Continuous
 62
     7
370
    15
100
AcDbSpline
210
0.0
220
0.0
230
1.0
 70
     8
 71
     3
 72
    14
 73
    10
 74
     0
 42
0.000000001
 43
0.00000001
 40
0.0
 40
0.0
 40
0.0
 40
0.0
 40
0.2505918154541287
 40
0.375539311551596
 40
0.5007928251300497
 40
0.625730642707096
 40
0.7506192310984156
 40
0.8750912642884492
 40
1.0
 40
1.0
 40
1.0
 40
1.0
 10
246.99897223137
 20
159.6900433968642
 30
0.0
 10
246.9452493318673
 20
159.6896908032001
 30
0.0
 10
246.8647396765251
 20
159.6891624029345
 30
0.0
 10
246.7590414093547
 20
159.6877120923946
 30
0.0
 10
246.6844320863478
 20
159.6860752745395
 30
0.0
 10
246.6204174857216
 20
159.6838620782459
 30
0.0
 10
246.572762442965
 20
159.6812237230867
 30
0.0
 10
246.5441307865297
 20
159.6783495467302
 30
0.0
 10
246.5406586091426
 20
159.6764406734197
 30
0.0
 10
246.5389194803016
 20
159.6754845654051
 30
0.0
  0
SPLINE
  5
1B6
330
1F
100
AcDbEntity
  8
0
  6
Continuous
 62
     7
370
    15
100
AcDbSpline
210
0.0
220
0.0
230
1.0
 70
     8
 71
     3
 72
    13
 73
     9
 74
     0
 42
0.000000001
 43
0.00000001
 40
0.0
 40
0.0
 40
0.0
 40
0.0
 40
0.1258190396379865
 40
0.2506707906531711
 40
0.4998215142758725
 40
0.7494852875435811
 40
0.8669403679449378
 40
0.9999999999999999
 40
0.9999999999999999
 40
0.9999999999999999
 40
0.9999999999999999
 10
246.5389194803016
 20
159.6754845654051
 30
0.0
 10
246.5397719296832
 20
159.6748295261447
 30
0.0
 10
246.5414702748709
 20
159.6735244835232
 30
0.0
 10
246.5587712272103
 20
159.6710695870843
 30
0.0
 10
246.6004768890793
 20
159.6683573791115
 30
0.0
 10
246.663598519832
 20
159.6663519160944
 30
0.0
 10
246.7230797745623
 20
159.665130829929
 30
0.0
 10
246.7552852008208
 20
159.6646542071429
 30
0.0
 10
246.7723909513219
 20
159.6644010513425
 30
0.0
  0
SPLINE
  5
1B7
330
1F
100
AcDbEntity
  8
0
  6
Continuous
 62
     7
370
    15
100
AcDbSpline
210
0.0
220
0.0
230
1.0
 70
     8
 71
     3
 72
    15
 73
    11
 74
     0
 42
0.000000001
 43
0.00000001
 40
0.0
 40
0.0
 40
0.0
 40
0.0
 40
0.1256469847203421
 40
0.2507173956648521
 40
0.3507333169582601
 40
0.5000239578811915
 40
0.6254383846609075
 40
0.7503084822090057
 40
0.8679629309524914
 40
1.0
 40
1.0
 40
1.0
 40
1.0
 10
246.7723909513219
 20
159.6644010513425
 30
0.0
 10
246.7560390451007
 20
159.664037333067
 30
0.0
 10
246.7234102689224
 20
159.6633115655608
 30
0.0
 10
246.6798794914628
 20
159.6620754246442
 30
0.0
 10
246.6374261033701
 20
159.6605084435233
 30
0.0
 10
246.6016762681423
 20
159.6586450310734
 30
0.0
 10
246.5731357714491
 20
159.6564463229565
 30
0.0
 10
246.5537234517444
 20
159.6543218406264
 30
0.0
 10
246.5422697066913
 20
159.6521073375075
 30
0.0
 10
246.5400782986044
 20
159.6506351995029
 30
0.0
 10
246.5389194803016
 20
159.6498567317797
 30
0.0
  0
SPLINE
  5
1B8
330
1F
100
AcDbEntity
  8
0
  6
Continuous
 62
     7
370
    15
100
AcDbSpline
210
0.0
220
0.0
230
1.0
 70
     8
 71
     3
 72
    11
 73
     7
 74
     0
 42
0.000000001
 43
0.00000001
 40
0.0
 40
0.0
 40
0.0
 40
0.0
 40
0.2496702516325131
 40
0.4988585482880876
 40
0.7492808548489965
 40
1.0
 40
1.0
 40
1.0
 40
1.0
 10
246.5389194803016
 20
159.6498567317797
 30
0.0
 10
246.5397657765436
 20
159.6491376556762
 30
0.0
 10
246.5414567353661
 20
159.6477008915492
 30
0.0
 10
246.5500862257421
 20
159.6455917756806
 30
0.0
 10
246.5655747783059
 20
159.6435924914858
 30
0.0
 10
246.580485874792
 20
159.6423610607139
 30
0.0
 10
246.5879458391424
 20
159.6417449806244
 30
0.0
  0
SPLINE
  5
1B9
330
1F
100
AcDbEntity
  8
0
  6
Continuous
 62
     7
370
    15
100
AcDbSpline
210
0.0
220
0.0
230
1.0
 70
     8
 71
     3
 72
    11
 73
     7
 74
     0
 42
0.000000001
 43
0.00000001
 40
0.0
 40
0.0
 40
0.0
 40
0.0
 40
0.2663830768096991
 40
0.4988319964086874
 40
0.7493322178424409
 40
1.0
 40
1.0
 40
1.0
 40
1.0
 10
246.5879458391424
 20
159.6417449806244
 30
0.0
 10
246.5978956625172
 20
159.641225631323
 30
0.0
 10
246.6165278155706
 20
159.6402530918812
 30
0.0
 10
246.6492662530142
 20
159.6389729450351
 30
0.0
 10
246.6850085748649
 20
159.6379091514953
 30
0.0
 10
246.7109297075749
 20
159.6372642679406
 30
0.0
 10
246.7238946071712
 20
159.6369417183579
 30
0.0
  0
ARC
  5
1BA
330
1F
100
AcDbEntity
  8
0
  6
Continuous
 62
     7
370
    15
100
AcDbCircle
 10
247.5226267453
 20
62.2244597945
 30
0.0
 40
97.41575646467886
100
AcDbArc
 50
90.4697853295
 51
90.5686084309
  0
LINE
  5
1BB
330
1F
100
AcDbEntity
  8
0
  6
Continuous
 62
     7
370
    15
100
AcDbLine
 10
246.5558799504
 20
159.6299411533
 30
0.0
 11
246.5558799504
 21
159.6354191791
 31
0.0
  0
SPLINE
  5
1BC
330
1F
100
AcDbEntity
  8
0
  6
Continuous
 62
     7
370
    15
100
AcDbSpline
210
0.0
220
0.0
230
1.0
 70
     8
 71
     3
 72
     9
 73
     5
 74
     0
 42
0.000000001
 43
0.00000001
 40
0.0
 40
0.0
 40
0.0
 40
0.0
 40
0.5009847722526827
 40
1.0
 40
1.0
 40
1.0
 40
1.0
 10
246.555879950387
 20
159.6299411532771
 30
0.0
 10
246.7173187684109
 20
159.6313453415169
 30
0.0
 10
247.0395617325993
 20
159.6341481976464
 30
0.0
 10
247.3618166394994
 20
159.6345419931937
 30
0.0
 10
247.5226267452589
 20
159.6347385031685
 30
0.0
  0
LINE
  5
1BD
330
1F
100
AcDbEntity
  8
0
  6
Continuous
 62
     7
370
    15
100
AcDbLine
 10
247.5226267453
 20
159.6402162592
 30
0.0
 11
247.5226267453
 21
159.6347385032
 31
0.0
  0
ARC
  5
1BE
330
1F
100
AcDbEntity
  8
0
  6
Continuous
 62
     7
370
    15
100
AcDbCircle
 10
247.5226267453
 20
62.2244597945
 30
0.0
 40
97.41575646467886
100
AcDbArc
 50
90.0
 51
90.2392549756
  0
SPLINE
  5
1BF
330
1F
100
AcDbEntity
  8
0
  6
Continuous
 62
     7
370
    15
100
AcDbSpline
210
0.0
220
0.0
230
1.0
 70
     8
 71
     3
 72
    15
 73
    11
 74
     0
 42
0.000000001
 43
0.00000001
 40
0.0
 40
0.0
 40
0.0
 40
0.0
 40
0.125486669659182
 40
0.2508953929654427
 40
0.3760455730600203
 40
0.5013019576697231
 40
0.7497539487082264
 40
0.8746787807813426
 40
0.934536287639577
 40
1.0
 40
1.0
 40
1.0
 40
1.0
 10
247.1158404705527
 20
159.6393669315551
 30
0.0
 10
247.0896940527161
 20
159.6392647353089
 30
0.0
 10
247.0374174579545
 20
159.6390604062959
 30
0.0
 10
246.9592948408416
 20
159.6389442950881
 30
0.0
 10
246.8820987835665
 20
159.6391326440547
 30
0.0
 10
246.7849644429052
 20
159.6402315742139
 30
0.0
 10
246.7075279847417
 20
159.6430396793896
 30
0.0
 10
246.6705729567097
 20
159.6463409273476
 30
0.0
 10
246.6602543610497
 20
159.6484512189737
 30
0.0
 10
246.658538881431
 20
159.6495412750343
 30
0.0
 10
246.6576427708999
 20
159.6501106847228
 30
0.0
  0
SPLINE
  5
1C0
330
1F
100
AcDbEntity
  8
0
  6
Continuous
 62
     7
370
    15
100
AcDbSpline
210
0.0
220
0.0
230
1.0
 70
     8
 71
     3
 72
    15
 73
    11
 74
     0
 42
0.000000001
 43
0.00000001
 40
0.0
 40
0.0
 40
0.0
 40
0.0
 40
0.1254191693111935
 40
0.2505171158938063
 40
0.3756307050434745
 40
0.5008049383046363
 40
0.6251121460718195
 40
0.7495537903514575
 40
0.8749111851660191
 40
1.0
 40
1.0
 40
1.0
 40
1.0
 10
246.6576427708999
 20
159.6501106847228
 30
0.0
 10
246.6588930969472
 20
159.6510117491543
 30
0.0
 10
246.6613905467152
 20
159.6528115702173
 30
0.0
 10
246.6860390063581
 20
159.6554809578332
 30
0.0
 10
246.7267116063567
 20
159.657832238591
 30
0.0
 10
246.7809344246879
 20
159.6596447686461
 30
0.0
 10
246.8425012146598
 20
159.6606984207391
 30
0.0
 10
246.9049400785707
 20
159.6614070978757
 30
0.0
 10
246.9679619857096
 20
159.6618491360938
 30
0.0
 10
247.0100277791877
 20
159.6620639893277
 30
0.0
 10
247.0310381201253
 20
159.6621713007398
 30
0.0
  0
ARC
  5
1C1
330
1F
100
AcDbEntity
  8
0
  6
Continuous
 62
     7
370
    15
100
AcDbCircle
 10
247.5226267453
 20
62.2244597945
 30
0.0
 40
97.43895156938437
100
AcDbArc
 50
90.0
 51
90.2890637934
  0
LINE
  5
1C2
330
1F
100
AcDbEntity
  8
0
  6
Continuous
 62
     7
370
    15
100
AcDbLine
 10
247.5226267453
 20
159.6680816044
 30
0.0
 11
247.5226267453
 21
159.6634113639
 31
0.0
  0
ARC
  5
1C3
330
1F
100
AcDbEntity
  8
0
  6
Continuous
 62
     7
370
    15
100
AcDbCircle
 10
247.5226267453
 20
62.2244597945
 30
0.0
 40
97.4436218098181
100
AcDbArc
 50
90.0
 51
90.2211111277
  0
SPLINE
  5
1C4
330
1F
100
AcDbEntity
  8
0
  6
Continuous
 62
     7
370
    15
100
AcDbSpline
210
0.0
220
0.0
230
1.0
 70
     8
 71
     3
 72
    14
 73
    10
 74
     0
 42
0.000000001
 43
0.00000001
 40
0.0
 40
0.0
 40
0.0
 40
0.0
 40
0.1257480350662099
 40
0.2514677121130482
 40
0.3768409777042828
 40
0.5021355105260062
 40
0.7501219830379485
 40
0.8749868872257675
 40
1.0
 40
1.0
 40
1.0
 40
1.0
 10
247.1465813225825
 20
159.6673560017848
 30
0.0
 10
247.119068569454
 20
159.6672534642016
 30
0.0
 10
247.0640492677248
 20
159.6670484121589
 30
0.0
 10
246.9817732554081
 20
159.6668380008316
 30
0.0
 10
246.9000025057777
 20
159.6667871600382
 30
0.0
 10
246.7958213874575
 20
159.6674438754707
 30
0.0
 10
246.7113561736961
 20
159.669716378327
 30
0.0
 10
246.6644018016393
 20
159.6729966962351
 30
0.0
 10
246.6598966718462
 20
159.6749178011004
 30
0.0
 10
246.6576427708999
 20
159.6758789232595
 30
0.0
  0
SPLINE
  5
1C5
330
1F
100
AcDbEntity
  8
0
  6
Continuous
 62
     7
370
    15
100
AcDbSpline
210
0.0
220
0.0
230
1.0
 70
     8
 71
     3
 72
    14
 73
    10
 74
     0
 42
0.000000001
 43
0.00000001
 40
0.0
 40
0.0
 40
0.0
 40
0.0
 40
0.1253948324848804
 40
0.2506152599745907
 40
0.375985491541643
 40
0.5012325091725743
 40
0.7494067598683267
 40
0.8747800186096102
 40
1.0
 40
1.0
 40
1.0
 40
1.0
 10
246.6576427708999
 20
159.6758789232595
 30
0.0
 10
246.6586683783621
 20
159.6765878139015
 30
0.0
 10
246.6607181668237
 20
159.6780046092273
 30
0.0
 10
246.6816172367924
 20
159.6801380685662
 30
0.0
 10
246.7165191411134
 20
159.6820909465045
 30
0.0
 10
246.7806449689832
 20
159.68422305314
 30
0.0
 10
246.8609981917221
 20
159.6852507869708
 30
0.0
 10
246.9391641321877
 20
159.6858518129232
 30
0.0
 10
246.9786909141394
 20
159.68606872884
 30
0.0
 10
246.9984422166798
 20
159.6861771204593
 30
0.0
  0
ARC
  5
1C6
330
1F
100
AcDbEntity
  8
0
  6
Continuous
 62
     7
370
    15
100
AcDbCircle
 10
247.5226267453
 20
62.2244597945
 30
0.0
 40
97.4631269431494
100
AcDbArc
 50
90.0
 51
90.3081545494
  0
LINE
  5
1C7
330
1F
100
AcDbEntity
  8
0
  6
Continuous
 62
     7
370
    15
100
AcDbLine
 10
247.5226267453
 20
159.6914501092
 30
0.0
 11
247.5226267453
 21
159.6875867377
 31
0.0
  0
ARC
  5
1C8
330
1F
100
AcDbEntity
  8
0
  6
Continuous
 62
     7
370
    15
100
AcDbCircle
 10
247.5226267453
 20
62.2244597945
 30
0.0
 40
97.49898046591356
100
AcDbArc
 50
90.0
 51
90.5681230574
  0
LINE
  5
1C9
330
1F
100
AcDbEntity
  8
0
  6
Continuous
 62
     7
370
    15
100
AcDbLine
 10
246.5558799504
 20
159.7163133942
 30
0.0
 11
246.5558799504
 21
159.7186472753
 31
0.0
  0
ARC
  5
1CA
330
1F
100
AcDbEntity
  8
0
  6
Continuous
 62
     7
370
    15
100
AcDbCircle
 10
247.5226267453
 20
62.2244597945
 30
0.0
 40
97.49664669954338
100
AcDbArc
 50
90.4630101385
 51
90.5681366569
  0
SPLINE
  5
1CB
330
1F
100
AcDbEntity
  8
0
  6
Continuous
 62
     7
370
    15
100
AcDbSpline
210
0.0
220
0.0
230
1.0
 70
     8
 71
     3
 72
    13
 73
     9
 74
     0
 42
0.000000001
 43
0.00000001
 40
0.0
 40
0.0
 40
0.0
 40
0.0
 40
0.1255174698708936
 40
0.2507708233888005
 40
0.499718886502146
 40
0.7492064108185362
 40
0.8744900902592968
 40
1.0
 40
1.0
 40
1.0
 40
1.0
 10
246.7347599083197
 20
159.7179230805664
 30
0.0
 10
246.7197532075954
 20
159.7175606389893
 30
0.0
 10
246.6897713835446
 20
159.7168365184919
 30
0.0
 10
246.6358939301711
 20
159.7152466299899
 30
0.0
 10
246.5820656216
 20
159.713042334496
 30
0.0
 10
246.5517160219086
 20
159.7106947006018
 30
0.0
 10
246.5409612193375
 20
159.7088277684371
 30
0.0
 10
246.5396004691386
 20
159.7078969304008
 30
0.0
 10
246.5389194803016
 20
159.7074310915479
 30
0.0
  0
SPLINE
  5
1CC
330
1F
100
AcDbEntity
  8
0
  6
Continuous
 62
     7
370
    15
100
AcDbSpline
210
0.0
220
0.0
230
1.0
 70
     8
 71
     3
 72
    14
 73
    10
 74
     0
 42
0.000000001
 43
0.00000001
 40
0.0
 40
0.0
 40
0.0
 40
0.0
 40
0.0631910287751251
 40
0.1262830940589519
 40
0.2512612309507253
 40
0.5006725277902415
 40
0.7499834269026671
 40
0.8746992907723019
 40
1.0
 40
1.0
 40
1.0
 40
1.0
 10
246.5389194803016
 20
159.7074310915479
 30
0.0
 10
246.5395013242446
 20
159.707031965205
 30
0.0
 10
246.5406641009048
 20
159.7062343375911
 30
0.0
 10
246.5486197142168
 20
159.7046703337818
 30
0.0
 10
246.581160886598
 20
159.702129205413
 30
0.0
 10
246.6748811410747
 20
159.6992203387966
 30
0.0
 10
246.811269406496
 20
159.6974784516343
 30
0.0
 10
246.9380003888477
 20
159.6971840249532
 30
0.0
 10
247.0036844292511
 20
159.6974150778512
 30
0.0
 10
247.0366032743721
 20
159.6975308745428
 30
0.0
  0
SPLINE
  5
1CD
330
1F
100
AcDbEntity
  8
0
  6
Continuous
 62
     7
370
    15
100
AcDbSpline
210
0.0
220
0.0
230
1.0
 70
     8
 71
     3
 72
    16
 73
    12
 74
     0
 42
0.000000001
 43
0.00000001
 40
0.0
 40
0.0
 40
0.0
 40
0.0
 40
0.0630534663408849
 40
0.1258787829489092
 40
0.2507266806290266
 40
0.3931837507315794
 40
0.5007520866254969
 40
0.6652794308326874
 40
0.8293276161477396
 40
0.9114404502498998
 40
1.0
 40
1.0
 40
1.0
 40
1.0
 10
247.0366032743721
 20
159.6975308745428
 30
0.0
 10
247.0532277784716
 20
159.6976276459291
 30
0.0
 10
247.0864166333373
 20
159.6978208385488
 30
0.0
 10
247.1521010997401
 20
159.6983463624115
 30
0.0
 10
247.2361854621315
 20
159.6993717467989
 30
0.0
 10
247.3231823020791
 20
159.7010009865515
 30
0.0
 10
247.4058225580388
 20
159.7031750080727
 30
0.0
 10
247.4780816085974
 20
159.7057394101969
 30
0.0
 10
247.5202889821693
 20
159.7084174753544
 30
0.0
 10
247.5360650650498
 20
159.7106280448896
 30
0.0
 10
247.5383839683527
 20
159.7117305763617
 30
0.0
 10
247.5395872153443
 20
159.7123026647603
 30
0.0
  0
SPLINE
  5
1CE
330
1F
100
AcDbEntity
  8
0
  6
Continuous
 62
     7
370
    15
100
AcDbSpline
210
0.0
220
0.0
230
1.0
 70
     8
 71
     3
 72
    14
 73
    10
 74
     0
 42
0.000000001
 43
0.00000001
 40
0.0
 40
0.0
 40
0.0
 40
0.0
 40
0.1253968680005153
 40
0.2505503754525578
 40
0.3098634262422164
 40
0.50003345820827
 40
0.7491688017305808
 40
0.8744601574291923
 40
0.9999999999999999
 40
0.9999999999999999
 40
0.9999999999999999
 40
0.9999999999999999
 10
247.5395872153443
 20
159.7123026647603
 30
0.0
 10
247.5390849364167
 20
159.712757972733
 30
0.0
 10
247.5380813533455
 20
159.7136677050519
 30
0.0
 10
247.5310731179576
 20
159.7147495766307
 30
0.0
 10
247.518442421241
 20
159.7160138906002
 30
0.0
 10
247.4935888946316
 20
159.7176088912285
 30
0.0
 10
247.4486916294204
 20
159.7191609010269
 30
0.0
 10
247.3975554689676
 20
159.7202607458164
 30
0.0
 10
247.3694658390284
 20
159.720728822102
 30
0.0
 10
247.3554071105099
 20
159.7209630920956
 30
0.0
  0
ARC
  5
1CF
330
1F
100
AcDbEntity
  8
0
  6
Continuous
 62
     7
370
    15
100
AcDbCircle
 10
247.5226267453
 20
62.2244597945
 30
0.0
 40
97.49664669954336
100
AcDbArc
 50
90.0
 51
90.0982698826
  0
LINE
  5
1D0
330
1F
100
AcDbEntity
  8
0
  6
Continuous
 62
     7
370
    15
100
AcDbLine
 10
247.5226267453
 20
159.7234402605
 30
0.0
 11
247.5226267453
 21
159.7211064941
 31
0.0
  0
ARC
  5
1D1
330
1F
100
AcDbEntity
  8
0
  6
Continuous
 62
     7
370
    15
100
AcDbCircle
 10
247.5226267453
 20
62.2244597945
 30
0.0
 40
97.51387571923934
100
AcDbArc
 50
90.0
 51
90.2900873803
  0
SPLINE
  5
1D2
330
1F
100
AcDbEntity
  8
0
  6
Continuous
 62
     7
370
    15
100
AcDbSpline
210
0.0
220
0.0
230
1.0
 70
     8
 71
     3
 72
    15
 73
    11
 74
     0
 42
0.000000001
 43
0.00000001
 40
0.0
 40
0.0
 40
0.0
 40
0.0
 40
0.1280962161937909
 40
0.2507332798465858
 40
0.3757433496704214
 40
0.500622656735823
 40
0.6256220980126782
 40
0.7505590875860613
 40
0.8750578521234406
 40
1.0
 40
1.0
 40
1.0
 40
1.0
 10
247.0289180613646
 20
159.7370856925418
 30
0.0
 10
246.9992954321239
 20
159.7369252150354
 30
0.0
 10
246.9413126188299
 20
159.7366110991878
 30
0.0
 10
246.8547702478346
 20
159.7359896084489
 30
0.0
 10
246.7698861123515
 20
159.7352429666608
 30
0.0
 10
246.6902484256536
 20
159.7342999878647
 30
0.0
 10
246.6237632637583
 20
159.733223437317
 30
0.0
 10
246.5742845872301
 20
159.7320928818409
 30
0.0
 10
246.5446747390122
 20
159.7309813526217
 30
0.0
 10
246.5408401718636
 20
159.7303065798885
 30
0.0
 10
246.5389194803016
 20
159.7299685938148
 30
0.0
  0
SPLINE
  5
1D3
330
1F
100
AcDbEntity
  8
0
  6
Continuous
 62
     7
370
    15
100
AcDbSpline
210
0.0
220
0.0
230
1.0
 70
     8
 71
     3
 72
    14
 73
    10
 74
     0
 42
0.000000001
 43
0.00000001
 40
0.0
 40
0.0
 40
0.0
 40
0.0
 40
0.0631091988973639
 40
0.1256828615692594
 40
0.2507911413381152
 40
0.499900746429731
 40
0.7491588011662215
 40
0.8744798927223459
 40
1.0
 40
1.0
 40
1.0
 40
1.0
 10
246.5389194803016
 20
159.7299685938148
 30
0.0
 10
246.5392049762473
 20
159.7298686888538
 30
0.0
 10
246.5397735454585
 20
159.7296697267117
 30
0.0
 10
246.5423442928747
 20
159.729275191805
 30
0.0
 10
246.5530533315608
 20
159.7286336506263
 30
0.0
 10
246.5842607111866
 20
159.7278438737476
 30
0.0
 10
246.6367591754993
 20
159.727306674818
 30
0.0
 10
246.6882609669029
 20
159.7270322301549
 30
0.0
 10
246.716249442647
 20
159.7269244570377
 30
0.0
 10
246.7302547834533
 20
159.7268705277259
 30
0.0
  0
ARC
  5
1D4
330
1F
100
AcDbEntity
  8
0
  6
Continuous
 62
     7
370
    15
100
AcDbCircle
 10
247.5226267453
 20
62.2244597945
 30
0.0
 40
97.50563036106068
100
AcDbArc
 50
90.4656148445
 51
90.5680843101
  0
LINE
  5
1D5
330
1F
100
AcDbEntity
  8
0
  6
Continuous
 62
     7
370
    15
100
AcDbLine
 10
246.5558799504
 20
159.7234387853
 30
0.0
 11
246.5558799504
 21
159.7252974973
 31
0.0
  0
SPLINE
  5
1D6
330
1F
100
AcDbEntity
  8
0
  6
Continuous
 62
     7
370
    15
100
AcDbSpline
210
0.0
220
0.0
230
1.0
 70
     8
 71
     3
 72
    10
 73
     6
 74
     0
 42
0.000000001
 43
0.00000001
 40
0.0
 40
0.0
 40
0.0
 40
0.0
 40
0.4999998079886115
 40
0.7499999039943193
 40
1.0
 40
1.0
 40
1.0
 40
1.0
 10
246.5558799503871
 20
159.723438785276
 30
0.0
 10
246.7170013600596
 20
159.7248106185431
 30
0.0
 10
246.9586835364428
 20
159.7268683689705
 30
0.0
 10
247.2809361644838
 20
159.7280492007816
 30
0.0
 10
247.4420632183338
 20
159.7281707568781
 30
0.0
 10
247.5226267452589
 20
159.7282315349264
 30
0.0
  0
LINE
  5
1D7
330
1F
100
AcDbEntity
  8
0
  6
Continuous
 62
     7
370
    15
100
AcDbLine
 10
247.5226267453
 20
159.7300901556
 30
0.0
 11
247.5226267453
 21
159.7282315349
 31
0.0
  0
ARC
  5
1D8
330
1F
100
AcDbEntity
  8
0
  6
Continuous
 62
     7
370
    15
100
AcDbCircle
 10
247.5226267453
 20
62.2244597945
 30
0.0
 40
97.50563036106067
100
AcDbArc
 50
90.0
 51
90.2053981725
  0
SPLINE
  5
1D9
330
1F
100
AcDbEntity
  8
0
  6
Continuous
 62
     7
370
    15
100
AcDbSpline
210
0.0
220
0.0
230
1.0
 70
     8
 71
     3
 72
    10
 73
     6
 74
     0
 42
0.000000001
 43
0.00000001
 40
0.0
 40
0.0
 40
0.0
 40
0.0
 40
0.5001106340608539
 40
0.7501595195876981
 40
1.0
 40
1.0
 40
1.0
 40
1.0
 10
247.1730820570911
 20
159.7294636180347
 30
0.0
 10
247.1296659222295
 20
159.7292994021055
 30
0.0
 10
247.0645422782757
 20
159.7290530803235
 30
0.0
 10
246.9777138984008
 20
159.7286719501571
 30
0.0
 10
246.9349919400051
 20
159.7285318246868
 30
0.0
 10
246.9136398662524
 20
159.728461791161
 30
0.0
  0
SPLINE
  5
1DA
330
1F
100
AcDbEntity
  8
0
  6
Continuous
 62
     7
370
    15
100
AcDbSpline
210
0.0
220
0.0
230
1.0
 70
     8
 71
     3
 72
    13
 73
     9
 74
     0
 42
0.000000001
 43
0.00000001
 40
0.0
 40
0.0
 40
0.0
 40
0.0
 40
0.1324875412157779
 40
0.2509610715868045
 40
0.500955780068109
 40
0.7501936061860616
 40
0.8691576721334923
 40
0.9999999999999999
 40
0.9999999999999999
 40
0.9999999999999999
 40
0.9999999999999999
 10
246.9136398662524
 20
159.728461791161
 30
0.0
 10
246.894887437668
 20
159.7284332016129
 30
0.0
 10
246.8593661386143
 20
159.7283790466068
 30
0.0
 10
246.7938882399852
 20
159.7284447951141
 30
0.0
 10
246.726273328708
 20
159.7288266960546
 30
0.0
 10
246.679445577796
 20
159.7294940517583
 30
0.0
 10
246.6608187263583
 20
159.7302266114231
 30
0.0
 10
246.6587344582791
 20
159.7306415294385
 30
0.0
 10
246.6576427708999
 20
159.7308588530953
 30
0.0
  0
SPLINE
  5
1DB
330
1F
100
AcDbEntity
  8
0
  6
Continuous
 62
     7
370
    15
100
AcDbSpline
210
0.0
220
0.0
230
1.0
 70
     8
 71
     3
 72
    12
 73
     8
 74
     0
 42
0.000000001
 43
0.00000001
 40
0.0
 40
0.0
 40
0.0
 40
0.0
 40
0.1256203758549056
 40
0.2509675484986246
 40
0.5009803998090834
 40
0.7502890322367355
 40
1.0
 40
1.0
 40
1.0
 40
1.0
 10
246.6576427708999
 20
159.7308588530953
 30
0.0
 10
246.6582735704352
 20
159.7310270704015
 30
0.0
 10
246.659533797623
 20
159.7313631391694
 30
0.0
 10
246.6689312037386
 20
159.7320564841228
 30
0.0
 10
246.6988376488146
 20
159.7329947818222
 30
0.0
 10
246.7656299356331
 20
159.734091276817
 30
0.0
 10
246.8204739356382
 20
159.7346345222312
 30
0.0
 10
246.8479180446712
 20
159.7349063639345
 30
0.0
  0
SPLINE
  5
1DC
330
1F
100
AcDbEntity
  8
0
  6
Continuous
 62
     7
370
    15
100
AcDbSpline
210
0.0
220
0.0
230
1.0
 70
     8
 71
     3
 72
    10
 73
     6
 74
     0
 42
0.000000001
 43
0.00000001
 40
0.0
 40
0.0
 40
0.0
 40
0.0
 40
0.2350451334449108
 40
0.4997135458326522
 40
1.0
 40
1.0
 40
1.0
 40
1.0
 10
246.8479180446712
 20
159.7349063639345
 30
0.0
 10
246.8649690646168
 20
159.7350480047845
 30
0.0
 10
246.9012200837816
 20
159.7353491378065
 30
0.0
 10
246.9747981909362
 20
159.735834946022
 30
0.0
 10
247.0310711721177
 20
159.7361189007592
 30
0.0
 10
247.0678741410922
 20
159.7363046093739
 30
0.0
  0
ARC
  5
1DD
330
1F
100
AcDbEntity
  8
0
  6
Continuous
 62
     7
370
    15
100
AcDbCircle
 10
247.5226267453
 20
62.2244597945
 30
0.0
 40
97.51290519270927
100
AcDbArc
 50
90.0
 51
90.2672005242
  0
LINE
  5
1DE
330
1F
100
AcDbEntity
  8
0
  6
Continuous
 62
     7
370
    15
100
AcDbLine
 10
247.5226267453
 20
159.7383355138
 30
0.0
 11
247.5226267453
 21
159.7373649873
 31
0.0
  0
ARC
  5
1DF
330
1F
100
AcDbEntity
  8
0
  6
Continuous
 62
     7
370
    15
100
AcDbCircle
 10
247.5226267453
 20
62.2244597945
 30
0.0
 40
97.39721353369909
100
AcDbArc
 50
90.0
 51
90.7982115742
  0
LINE
  5
1E0
330
1F
100
AcDbEntity
  8
0
  6
Continuous
 62
     7
370
    15
100
AcDbLine
 10
246.1657891384
 20
159.6062669282
 30
0.0
 11
246.1657891384
 21
159.612221838
 31
0.0
  0
ARC
  5
1E1
330
1F
100
AcDbEntity
  8
0
  6
Continuous
 62
     7
370
    15
100
AcDbCircle
 10
247.5226267453
 20
62.2244597945
 30
0.0
 40
97.39125920176535
100
AcDbArc
 50
90.4586779574
 51
90.7982603786
  0
SPLINE
  5
1E2
330
1F
100
AcDbEntity
  8
0
  6
Continuous
 62
     7
370
    15
100
AcDbSpline
210
0.0
220
0.0
230
1.0
 70
     8
 71
     3
 72
    13
 73
     9
 74
     0
 42
0.000000001
 43
0.00000001
 40
0.0
 40
0.0
 40
0.0
 40
0.0
 40
0.1258202597301406
 40
0.2514113307651784
 40
0.5008633331781301
 40
0.7495542523750492
 40
0.8675186069076894
 40
1.0
 40
1.0
 40
1.0
 40
1.0
 10
246.7429751360174
 20
159.6125982523347
 30
0.0
 10
246.7278554218847
 20
159.6118689223665
 30
0.0
 10
246.6976435350309
 20
159.6104115909457
 30
0.0
 10
246.6422082192154
 20
159.6072032212255
 30
0.0
 10
246.5864637852806
 20
159.6025901660445
 30
0.0
 10
246.5537783815711
 20
159.5975155510391
 30
0.0
 10
246.5418669623372
 20
159.59332941954
 30
0.0
 10
246.5399392213559
 20
159.5912210305071
 30
0.0
 10
246.5389194803016
 20
159.5901057298126
 30
0.0
  0
SPLINE
  5
1E3
330
1F
100
AcDbEntity
  8
0
  6
Continuous
 62
     7
370
    15
100
AcDbSpline
210
0.0
220
0.0
230
1.0
 70
     8
 71
     3
 72
    14
 73
    10
 74
     0
 42
0.000000001
 43
0.00000001
 40
0.0
 40
0.0
 40
0.0
 40
0.0
 40
0.0631860516869454
 40
0.1262867249150201
 40
0.2512549387317797
 40
0.5006643484966119
 40
0.7499810686999308
 40
0.8746975941076072
 40
0.9999999999999999
 40
0.9999999999999999
 40
0.9999999999999999
 40
0.9999999999999999
 10
246.5389194803016
 20
159.5901057298126
 30
0.0
 10
246.5395031193985
 20
159.5892014286871
 30
0.0
 10
246.5406696089656
 20
159.5873940483486
 30
0.0
 10
246.5486027020295
 20
159.5838312855206
 30
0.0
 10
246.5811090511023
 20
159.5779041619076
 30
0.0
 10
246.6747525551936
 20
159.5707509245711
 30
0.0
 10
246.8111505217946
 20
159.5660115496644
 30
0.0
 10
246.937941533924
 20
159.56454463958
 30
0.0
 10
247.003664690224
 20
159.5646564344946
 30
0.0
 10
247.0366032743721
 20
159.5647124629389
 30
0.0
  0
SPLINE
  5
1E4
330
1F
100
AcDbEntity
  8
0
  6
Continuous
 62
     7
370
    15
100
AcDbSpline
210
0.0
220
0.0
230
1.0
 70
     8
 71
     3
 72
    15
 73
    11
 74
     0
 42
0.000000001
 43
0.00000001
 40
0.0
 40
0.0
 40
0.0
 40
0.0
 40
0.0631345238047053
 40
0.1260276292936507
 40
0.2510385027021478
 40
0.5001460748174994
 40
0.6648737403738126
 40
0.8291147212970632
 40
0.9109198930669928
 40
0.9999999999999999
 40
0.9999999999999999
 40
0.9999999999999999
 40
0.9999999999999999
 10
247.0366032743721
 20
159.5647124629389
 30
0.0
 10
247.053239934263
 20
159.5648260940854
 30
0.0
 10
247.0864496375928
 20
159.5650529218676
 30
0.0
 10
247.1521666548051
 20
159.5658411649468
 30
0.0
 10
247.2634556768342
 20
159.5681945038818
 30
0.0
 10
247.3830616041885
 20
159.5734053227962
 30
0.0
 10
247.4780399364234
 20
159.5804757363237
 30
0.0
 10
247.5202613488225
 20
159.5862428867254
 30
0.0
 10
247.5360372976936
 20
159.5911074178819
 30
0.0
 10
247.5383707955384
 20
159.5935807610384
 30
0.0
 10
247.5395872153443
 20
159.5948700802503
 30
0.0
  0
SPLINE
  5
1E5
330
1F
100
AcDbEntity
  8
0
  6
Continuous
 62
     7
370
    15
100
AcDbSpline
210
0.0
220
0.0
230
1.0
 70
     8
 71
     3
 72
    14
 73
    10
 74
     0
 42
0.000000001
 43
0.00000001
 40
0.0
 40
0.0
 40
0.0
 40
0.0
 40
0.1253956626748834
 40
0.2505491370561695
 40
0.3099820825387149
 40
0.500033900685834
 40
0.7491695739471307
 40
0.874459511364137
 40
1.0
 40
1.0
 40
1.0
 40
1.0
 10
247.5395872153443
 20
159.5948700802503
 30
0.0
 10
247.5390853903608
 20
159.5959001518791
 30
0.0
 10
247.5380827096149
 20
159.5979583056637
 30
0.0
 10
247.5310725538255
 20
159.6004489885287
 30
0.0
 10
247.5184576635195
 20
159.6033866150074
 30
0.0
 10
247.4935981965539
 20
159.6071495833702
 30
0.0
 10
247.4487217164364
 20
159.6109345588072
 30
0.0
 10
247.3975736710611
 20
159.6137209767083
 30
0.0
 10
247.3694719874945
 20
159.6149568734901
 30
0.0
 10
247.3554071105099
 20
159.6155754391415
 30
0.0
  0
ARC
  5
1E6
330
1F
100
AcDbEntity
  8
0
  6
Continuous
 62
     7
370
    15
100
AcDbCircle
 10
247.5226267453
 20
62.2244597945
 30
0.0
 40
97.39125920176535
100
AcDbArc
 50
90.0
 51
90.0983762209
  0
LINE
  5
1E7
330
1F
100
AcDbEntity
  8
0
  6
Continuous
 62
     7
370
    15
100
AcDbLine
 10
247.5226267453
 20
159.6216733282
 30
0.0
 11
247.5226267453
 21
159.6157189963
 31
0.0
  0
ARC
  5
1E8
330
1F
100
AcDbEntity
  8
0
  6
Continuous
 62
     7
370
    15
100
AcDbCircle
 10
247.5226267453
 20
62.2244597945
 30
0.0
 40
97.32692270280633
100
AcDbArc
 50
90.0
 51
90.7987880908
  0
LINE
  5
1E9
330
1F
100
AcDbEntity
  8
0
  6
Continuous
 62
     7
370
    15
100
AcDbLine
 10
246.1657891384
 20
159.5344337236
 30
0.0
 11
246.1657891384
 21
159.5419241805
 31
0.0
  0
ARC
  5
1EA
330
1F
100
AcDbEntity
  8
0
  6
Continuous
 62
     7
370
    15
100
AcDbCircle
 10
247.5226267453
 20
62.2244597945
 30
0.0
 40
97.31943297387907
100
AcDbArc
 50
90.0
 51
90.7988495697
  0
LINE
  5
1EB
330
1F
100
AcDbEntity
  8
0
  6
Continuous
 62
     7
370
    15
100
AcDbLine
 10
247.5226267453
 20
159.5513824974
 30
0.0
 11
247.5226267453
 21
159.5438927684
 31
0.0
  0
SPLINE
  5
1EC
330
1F
100
AcDbEntity
  8
0
  6
Continuous
 62
     7
370
    15
100
AcDbSpline
210
0.0
220
0.0
230
1.0
 70
     8
 71
     3
 72
    11
 73
     7
 74
     0
 42
0.000000001
 43
0.00000001
 40
0.0
 40
0.0
 40
0.0
 40
0.0
 40
0.0316928520232624
 40
0.3754571894963478
 40
0.719016183429382
 40
1.0
 40
1.0
 40
1.0
 40
1.0
 10
246.6576427708999
 20
160.2368778197066
 30
0.0
 10
246.6551805123708
 20
160.2368639573426
 30
0.0
 10
246.6260107593158
 20
160.236699733429
 30
0.0
 10
246.5855091174901
 20
160.2364521377695
 30
0.0
 10
246.5478962548027
 20
160.2362315148044
 30
0.0
 10
246.5421970964071
 20
160.2361904103902
 30
0.0
 10
246.5396330267383
 20
160.2361719173822
 30
0.0
  0
LINE
  5
1ED
330
1F
100
AcDbEntity
  8
0
  6
Continuous
 62
     7
370
    15
100
AcDbLine
 10
246.6576427709
 20
159.737290131
 30
0.0
 11
246.6576427709
 21
160.237290131
 31
0.0
  0
SPLINE
  5
1EE
330
1F
100
AcDbEntity
  8
0
  6
Continuous
 62
     7
370
    15
100
AcDbSpline
210
0.0
220
0.0
230
1.0
 70
     8
 71
     3
 72
    17
 73
    13
 74
     0
 42
0.000000001
 43
0.00000001
 40
0.0
 40
0.0
 40
0.0
 40
0.0
 40
0.063204245114212
 40
0.1256995825082513
 40
0.2506953323342291
 40
0.3755788482551429
 40
0.5007212602922885
 40
0.6254495230153726
 40
0.7503513964318131
 40
0.8333082829934304
 40
0.9123466118048208
 40
1.0
 40
1.0
 40
1.0
 40
1.0
 10
247.0379283110975
 20
159.7009666469362
 30
0.0
 10
247.0251761750022
 20
159.7009133086415
 30
0.0
 10
246.999814932567
 20
159.700807230302
 30
0.0
 10
246.949679491537
 20
159.7007393041256
 30
0.0
 10
246.8893321815916
 20
159.70092810085
 30
0.0
 10
246.8230521112332
 20
159.7015093301969
 30
0.0
 10
246.7642812929438
 20
159.7023932671111
 30
0.0
 10
246.7174938207993
 20
159.7036267131849
 30
0.0
 10
246.6865159976639
 20
159.7049338804333
 30
0.0
 10
246.6693297991248
 20
159.7062000967022
 30
0.0
 10
246.6606024677178
 20
159.7073703024897
 30
0.0
 10
246.6586627529983
 20
159.7081732214872
 30
0.0
 10
246.6576427708999
 20
159.7085954294519
 30
0.0
  0
SPLINE
  5
1EF
330
1F
100
AcDbEntity
  8
0
  6
Continuous
 62
     7
370
    15
100
AcDbSpline
210
0.0
220
0.0
230
1.0
 70
     8
 71
     3
 72
    14
 73
    10
 74
     0
 42
0.000000001
 43
0.00000001
 40
0.0
 40
0.0
 40
0.0
 40
0.0
 40
0.1258534190922502
 40
0.2509247659378601
 40
0.4999927681408903
 40
0.6249066368983962
 40
0.7499101053975767
 40
0.8682620930493263
 40
1.0
 40
1.0
 40
1.0
 40
1.0
 10
246.6576427708999
 20
159.7085954294519
 30
0.0
 10
246.6588093446879
 20
159.7092205984149
 30
0.0
 10
246.6611352429975
 20
159.710467051446
 30
0.0
 10
246.688868741059
 20
159.7129789399887
 30
0.0
 10
246.7460689826828
 20
159.715374400647
 30
0.0
 10
246.823907680071
 20
159.7173405341668
 30
0.0
 10
246.8899317826813
 20
159.7185415696805
 30
0.0
 10
246.963855938537
 20
159.7194232961939
 30
0.0
 10
247.0146283949552
 20
159.7197477953228
 30
0.0
 10
247.0413734065836
 20
159.7199187292029
 30
0.0
  0
SPLINE
  5
1F0
330
1F
100
AcDbEntity
  8
0
  6
Continuous
 62
     7
370
    15
100
AcDbSpline
210
0.0
220
0.0
230
1.0
 70
     8
 71
     3
 72
    16
 73
    12
 74
     0
 42
0.000000001
 43
0.00000001
 40
0.0
 40
0.0
 40
0.0
 40
0.0
 40
0.0722870585289704
 40
0.1439228437912758
 40
0.2868944373167228
 40
0.3940024570934118
 40
0.5009469467792527
 40
0.625761097811018
 40
0.750742208884236
 40
0.8666923226959465
 40
1.0
 40
1.0
 40
1.0
 40
1.0
 10
247.0413734065836
 20
159.7199187292029
 30
0.0
 10
247.0559962270188
 20
159.719979120923
 30
0.0
 10
247.0851101229789
 20
159.7200993602615
 30
0.0
 10
247.1426304065279
 20
159.7201687593272
 30
0.0
 10
247.204855595949
 20
159.7199558673992
 30
0.0
 10
247.2669081835828
 20
159.7193534203215
 30
0.0
 10
247.3183929882039
 20
159.7185029365986
 30
0.0
 10
247.3615397553399
 20
159.7173147433835
 30
0.0
 10
247.3947129238085
 20
159.7158734179345
 30
0.0
 10
247.4154124738203
 20
159.7142072473471
 30
0.0
 10
247.4189643276291
 20
159.7129998088785
 30
0.0
 10
247.420863924746
 20
159.7123540484509
 30
0.0
  0
SPLINE
  5
1F1
330
1F
100
AcDbEntity
  8
0
  6
Continuous
 62
     7
370
    15
100
AcDbSpline
210
0.0
220
0.0
230
1.0
 70
     8
 71
     3
 72
    17
 73
    13
 74
     0
 42
0.000000001
 43
0.00000001
 40
0.0
 40
0.0
 40
0.0
 40
0.0
 40
0.0630727286635472
 40
0.125776872469831
 40
0.2508801067935873
 40
0.3755592674604115
 40
0.5005307814964671
 40
0.6253247046739684
 40
0.7506990009346297
 40
0.8217734244223012
 40
0.8752101093639593
 40
1.0
 40
1.0
 40
1.0
 40
1.0
 10
247.420863924746
 20
159.7123540484509
 30
0.0
 10
247.4204224882391
 20
159.712043452698
 30
0.0
 10
247.419542194895
 20
159.7114240762537
 30
0.0
 10
247.4127305938677
 20
159.7101672050353
 30
0.0
 10
247.394312958117
 20
159.7086004413746
 30
0.0
 10
247.3587915126796
 20
159.7067911318764
 30
0.0
 10
247.3114087191301
 20
159.7051056822708
 30
0.0
 10
247.2522511438019
 20
159.7036478770498
 30
0.0
 10
247.1952545138917
 20
159.7025948863242
 30
0.0
 10
247.1479782822084
 20
159.701922269598
 30
0.0
 10
247.0990157964363
 20
159.7013889564724
 30
0.0
 10
247.0630856918495
 20
159.7011405647483
 30
0.0
 10
247.0379283110975
 20
159.7009666469362
 30
0.0
  0
LINE
  5
1F2
330
1F
100
AcDbEntity
  8
0
  6
Continuous
 62
     7
370
    15
100
AcDbLine
 10
247.0413734066
 20
159.7199187292
 30
0.0
 11
247.0413734066
 21
159.722252524
 31
0.0
  0
LINE
  5
1F3
330
1F
100
AcDbEntity
  8
0
  6
Continuous
 62
     7
370
    15
100
AcDbLine
 10
247.3554071105
 20
159.7209630921
 30
0.0
 11
247.3554071105
 21
159.7232968619
 31
0.0
  0
SPLINE
  5
1F4
330
1F
100
AcDbEntity
  8
0
  6
Continuous
 62
     7
370
    15
100
AcDbSpline
210
0.0
220
0.0
230
1.0
 70
     8
 71
     3
 72
    16
 73
    12
 74
     0
 42
0.000000001
 43
0.00000001
 40
0.0
 40
0.0
 40
0.0
 40
0.0
 40
0.0632254523199625
 40
0.125723652145534
 40
0.2507446009546112
 40
0.3756559636651009
 40
0.5008190511353833
 40
0.625570200588363
 40
0.75048919459509
 40
0.8673499324129984
 40
1.0
 40
1.0
 40
1.0
 40
1.0
 10
247.0379283110975
 20
159.571772818127
 30
0.0
 10
247.0251669774145
 20
159.5717318326164
 30
0.0
 10
246.9997910976382
 20
159.5716503330322
 30
0.0
 10
246.9496257401744
 20
159.5718108385024
 30
0.0
 10
246.8892533938532
 20
159.5726067318155
 30
0.0
 10
246.8229555257612
 20
159.5743250710638
 30
0.0
 10
246.7641955162393
 20
159.5766869356732
 30
0.0
 10
246.7174276472867
 20
159.5797538406394
 30
0.0
 10
246.6833461806272
 20
159.5832075816099
 30
0.0
 10
246.6628950688256
 20
159.5871311682745
 30
0.0
 10
246.6594658713899
 20
159.5898659956465
 30
0.0
 10
246.6576427708999
 20
159.5913199408379
 30
0.0
  0
SPLINE
  5
1F5
330
1F
100
AcDbEntity
  8
0
  6
Continuous
 62
     7
370
    15
100
AcDbSpline
210
0.0
220
0.0
230
1.0
 70
     8
 71
     3
 72
    14
 73
    10
 74
     0
 42
0.000000001
 43
0.00000001
 40
0.0
 40
0.0
 40
0.0
 40
0.0
 40
0.1258547236406163
 40
0.2509239182955323
 40
0.4999949889167106
 40
0.6249124345451988
 40
0.7499194758481604
 40
0.8672113698674159
 40
1.0
 40
1.0
 40
1.0
 40
1.0
 10
246.6576427708999
 20
159.5913199408379
 30
0.0
 10
246.6588086933046
 20
159.5927248102829
 30
0.0
 10
246.6611332609471
 20
159.5955257806052
 30
0.0
 10
246.6888278479126
 20
159.601038075418
 30
0.0
 10
246.745986022904
 20
159.6060953730755
 30
0.0
 10
246.8238109333822
 20
159.6100610103854
 30
0.0
 10
246.8896529521761
 20
159.6123648043672
 30
0.0
 10
246.9635970815812
 20
159.6138860952878
 30
0.0
 10
247.014398625413
 20
159.6143066424975
 30
0.0
 10
247.0413734065836
 20
159.6145299461237
 30
0.0
  0
LINE
  5
1F6
330
1F
100
AcDbEntity
  8
0
  6
Continuous
 62
     7
370
    15
100
AcDbLine
 10
247.139318291
 20
159.6139967267
 30
0.0
 11
247.0413734066
 21
159.6145299461
 31
0.0
  0
SPLINE
  5
1F7
330
1F
100
AcDbEntity
  8
0
  6
Continuous
 62
     7
370
    15
100
AcDbSpline
210
0.0
220
0.0
230
1.0
 70
     8
 71
     3
 72
    17
 73
    13
 74
     0
 42
0.000000001
 43
0.00000001
 40
0.0
 40
0.0
 40
0.0
 40
0.0
 40
0.0630673986719276
 40
0.1257749291691658
 40
0.2508759522411932
 40
0.3755555794980642
 40
0.5005286410637861
 40
0.6253190904960123
 40
0.7506945395440465
 40
0.8129017888612229
 40
0.8752118277994221
 40
1.0
 40
1.0
 40
1.0
 40
1.0
 10
247.420863924746
 20
159.5950507746493
 30
0.0
 10
247.4204219220449
 20
159.5943526175631
 30
0.0
 10
247.4195404387494
 20
159.5929602871371
 30
0.0
 10
247.4127397313181
 20
159.5901725129827
 30
0.0
 10
247.3943398847513
 20
159.5867533118692
 30
0.0
 10
247.3588500138381
 20
159.5828955265411
 30
0.0
 10
247.3114894113078
 20
159.5793943093253
 30
0.0
 10
247.2523511252735
 20
159.5764704018049
 30
0.0
 10
247.1968913612972
 20
159.5745118359365
 30
0.0
 10
247.1497798794281
 20
159.5732745893498
 30
0.0
 10
247.1008397026811
 20
159.5723549759017
 30
0.0
 10
247.0630996490772
 20
159.5720057439888
 30
0.0
 10
247.0379283110975
 20
159.571772818127
 30
0.0
  0
LINE
  5
1F8
330
1F
100
AcDbEntity
  8
0
  6
Continuous
 62
     7
370
    15
100
AcDbLine
 10
247.0413734066
 20
159.6145299461
 30
0.0
 11
247.0413734066
 21
159.6204843508
 31
0.0
  0
LINE
  5
1F9
330
1F
100
AcDbEntity
  8
0
  6
Continuous
 62
     7
370
    15
100
AcDbLine
 10
246.742975136
 20
159.6125982523
 30
0.0
 11
246.742975136
 21
159.6185527751
 31
0.0
  0
SPLINE
  5
1FA
330
1F
100
AcDbEntity
  8
0
  6
Continuous
 62
     7
370
    15
100
AcDbSpline
210
0.0
220
0.0
230
1.0
 70
     8
 71
     3
 72
    14
 73
    10
 74
     0
 42
0.000000001
 43
0.00000001
 40
0.0
 40
0.0
 40
0.0
 40
0.0
 40
0.1316666806097709
 40
0.2499107596568458
 40
0.3751632215911191
 40
0.5007092004576897
 40
0.7495744554598368
 40
0.8746112171592161
 40
1.0
 40
1.0
 40
1.0
 40
1.0
 10
246.6576427708999
 20
159.4922980359062
 30
0.0
 10
246.6590695543386
 20
159.4938854940832
 30
0.0
 10
246.6617776694926
 20
159.4968985789206
 30
0.0
 10
246.6760252626887
 20
159.5013710284443
 30
0.0
 10
246.6999282872744
 20
159.5055979603135
 30
0.0
 10
246.743510763998
 20
159.5109598249292
 30
0.0
 10
246.8074429768756
 20
159.5154994421384
 30
0.0
 10
246.8848778687129
 20
159.5183976447585
 30
0.0
 10
246.9255873894593
 20
159.5194542247433
 30
0.0
 10
246.9459707623529
 20
159.5199832573487
 30
0.0
  0
SPLINE
  5
1FB
330
1F
100
AcDbEntity
  8
0
  6
Continuous
 62
     7
370
    15
100
AcDbSpline
210
0.0
220
0.0
230
1.0
 70
     8
 71
     3
 72
    11
 73
     7
 74
     0
 42
0.000000001
 43
0.00000001
 40
0.0
 40
0.0
 40
0.0
 40
0.0
 40
0.250556568892333
 40
0.4997851834416189
 40
0.7490519119553872
 40
1.0
 40
1.0
 40
1.0
 40
1.0
 10
246.7482752829191
 20
159.4750497396335
 30
0.0
 10
246.734185607032
 20
159.4762436929428
 30
0.0
 10
246.7060809307947
 20
159.4786252715871
 30
0.0
 10
246.6780894880326
 20
159.4829020554747
 30
0.0
 10
246.6602775994994
 20
159.4874842574999
 30
0.0
 10
246.6585230129823
 20
159.4906898514766
 30
0.0
 10
246.6576427708999
 20
159.4922980359062
 30
0.0
  0
LINE
  5
1FC
330
1F
100
AcDbEntity
  8
0
  6
Continuous
 62
     7
370
    15
100
AcDbLine
 10
246.9459707624
 20
159.4678903884
 30
0.0
 11
246.9459707624
 21
159.5199832573
 31
0.0
  0
SPLINE
  5
1FD
330
1F
100
AcDbEntity
  8
0
  6
Continuous
 62
     7
370
    15
100
AcDbSpline
210
0.0
220
0.0
230
1.0
 70
     8
 71
     3
 72
    11
 73
     7
 74
     0
 42
0.000000001
 43
0.00000001
 40
0.0
 40
0.0
 40
0.0
 40
0.0
 40
0.269626874072996
 40
0.4993340362791617
 40
0.7496750212825929
 40
1.0
 40
1.0
 40
1.0
 40
1.0
 10
246.9459707623529
 20
159.4678903883547
 30
0.0
 10
246.9261795724702
 20
159.4682583260253
 30
0.0
 10
246.8895273850321
 20
159.4689397262114
 30
0.0
 10
246.8370916436001
 20
159.470420185942
 30
0.0
 10
246.7889183445167
 20
159.4723050926516
 30
0.0
 10
246.7618226813689
 20
159.4741348768056
 30
0.0
 10
246.7482752829191
 20
159.4750497396335
 30
0.0
  0
LINE
  5
1FE
330
1F
100
AcDbEntity
  8
0
  6
Continuous
 62
     7
370
    15
100
AcDbLine
 10
247.0419034213
 20
159.4585132094
 30
0.0
 11
247.0419034213
 21
159.5281800079
 31
0.0
  0
LINE
  5
1FF
330
1F
100
AcDbEntity
  8
0
  6
Continuous
 62
     8
370
    15
100
AcDbLine
 10
247.0678741411
 20
159.7363046094
 30
0.0
 11
247.0678741411
 21
159.7372751465
 31
0.0
  0
HATCH
  5
200
330
1F
100
AcDbEntity
  8
0
  6
Continuous
 62
     7
370
     0
100
AcDbHatch
 10
0.0
 20
0.0
 30
0.0
210
0.0
220
0.0
230
1.0
  2
DIN 201 Stahl und Stahlguss
 70
     0
 71
     0
 91
        1
 92
        0
 93
       10
 72
     1
 10
285.5226267452589
 20
152.241126461212
 11
285.5226267452582
 21
154.741126461212
 72
     2
 10
247.5226267452589
 20
62.22445979454483
 40
100.0166666666666
 50
67.67023964490332
 51
112.3297603550967
 73
     1
 72
     1
 10
209.5226267452596
 20
154.741126461212
 11
209.5226267452587
 21
152.241126461212
 72
     1
 10
209.5226267452587
 20
152.241126461212
 11
210.0192935600604
 21
152.241126461212
 72
     2
 10
247.5226267452589
 20
62.22445979454483
 40
97.51666666666661
 50
247.3820936275859
 51
269.4224316787617
 73
     0
 72
     1
 10
246.5396356475024
 20
159.7361719436978
 11
246.5396356475024
 21
160.2361719436978
 72
     2
 10
247.5226267452589
 20
62.72445979454483
 40
97.51666666666661
 50
269.4224336473107
 51
269.4917825640396
 73
     0
 72
     1
 10
246.6576586477938
 20
160.2372902732062
 11
246.6576586477938
 21
159.7372902732062
 72
     2
 10
247.5226267452589
 20
62.22445979454483
 40
97.51666666666661
 50
269.4917825745131
 51
292.6179063724157
 73
     0
 72
     1
 10
285.0259599304573
 20
152.241126461212
 11
285.5226267452589
 21
152.241126461212
 97
        0
 75
     0
 76
     2
 52
0.0
 41
1.0
 77
     0
 78
     4
 53
45.00000209717174
 43
0.0
 44
0.0
 45
-13.47038467465416
 46
13.47038368855329
 79
     0
 53
45.00000209717174
 43
4.490128
 44
0.0
 45
-13.47038467465416
 46
13.47038368855329
 79
     0
 53
45.00000209717174
 43
8.980256
 44
0.0
 45
-13.47038467465416
 46
13.47038368855329
 79
     0
 53
45.00000209717174
 43
13.47038
 44
0.0
 45
-13.47038467465416
 46
13.47038368855329
 79
     0
 98
        1
 10
0.0
 20
0.0
  0
MTEXT
  5
201
330
1F
100
AcDbEntity
  8
0
  6
Continuous
 62
     7
370
     0
100
AcDbMText
 10
247.2333909522
 20
149.47714152
 30
0.0
 40
3.5
 41
0.0
 71
     2
 72
     1
  1
A-A
  7
SLDTEXTSTYLE0
 73
     1
 44
1.0
  0
ENDSEC
  0
SECTION
  2
OBJECTS
  0
DICTIONARY
  5
C
330
0
100
AcDbDictionary
281
     1
  3
ACAD_GROUP
350
D
  3
ACAD_LAYOUT
350
1A
  3
ACAD_MLINESTYLE
350
17
  3
ACAD_PLOTSETTINGS
350
19
  3
ACAD_PLOTSTYLENAME
350
E
  3
ACAD_SCALELIST
350
47
  0
DICTIONARY
  5
D
102
{ACAD_REACTORS
330
C
102
}
330
C
100
AcDbDictionary
281
     1
  0
DICTIONARY
  5
1A
102
{ACAD_REACTORS
330
C
102
}
330
C
100
AcDbDictionary
281
     1
  3
Layout1
350
1E
  3
Layout2
350
26
  3
Model
350
22
  0
DICTIONARY
  5
17
102
{ACAD_REACTORS
330
C
102
}
330
C
100
AcDbDictionary
281
     1
  3
Standard
350
18
  0
DICTIONARY
  5
19
102
{ACAD_REACTORS
330
C
102
}
330
C
100
AcDbDictionary
281
     1
  0
ACDBDICTIONARYWDFLT
  5
E
102
{ACAD_REACTORS
330
C
102
}
330
C
100
AcDbDictionary
281
     1
  3
Normal
350
F
100
AcDbDictionaryWithDefault
340
F
  0
DICTIONARY
  5
47
102
{ACAD_REACTORS
330
C
102
}
330
C
100
AcDbDictionary
281
     1
  3
A0
350
48
  3
A1
350
49
  3
A2
350
4A
  3
A3
350
4B
  3
A4
350
4C
  3
A5
350
4D
  3
A6
350
4E
  3
A7
350
4F
  3
A8
350
50
  3
A9
350
51
  3
B0
350
52
  3
B1
350
53
  3
B2
350
54
  3
B3
350
55
  3
B4
350
56
  3
B5
350
57
  3
B6
350
58
  3
B7
350
59
  3
B8
350
5A
  3
B9
350
5B
  3
C0
350
5C
  3
C1
350
5D
  3
C2
350
5E
  3
C3
350
5F
  3
C4
350
60
  3
C5
350
61
  3
C6
350
62
  3
C7
350
63
  3
C8
350
64
  3
C9
350
65
  3
D0
350
66
  3
D1
350
67
  3
D2
350
68
  0
LAYOUT
  5
1E
102
{ACAD_REACTORS
330
1A
102
}
330
1A
100
AcDbPlotSettings
  1

  2
none_device
  4

  6

 40
0.0
 41
0.0
 42
0.0
 43
0.0
 44
0.0
 45
0.0
 46
0.0
 47
0.0
 48
0.0
 49
0.0
140
0.0
141
0.0
142
1.0
143
1.0
 70
   688
 72
     1
 73
     0
 74
     5
  7

 75
    16
147
1.0
148
0.0
149
0.0
100
AcDbLayout
  1
Layout1
 70
     1
 71
     1
 10
0.0
 20
0.0
 11
420.0
 21
297.0
 12
0.0
 22
0.0
 32
0.0
 14
1.0000000000E+20
 24
1.0000000000E+20
 34
1.0000000000E+20
 15
-1.0000000000E+20
 25
-1.0000000000E+20
 35
-1.0000000000E+20
146
0.0
 13
0.0
 23
0.0
 33
0.0
 16
1.0
 26
0.0
 36
0.0
 17
0.0
 27
1.0
 37
0.0
 76
     0
330
1B
  0
LAYOUT
  5
26
102
{ACAD_REACTORS
330
1A
102
}
330
1A
100
AcDbPlotSettings
  1

  2
none_device
  4

  6

 40
0.0
 41
0.0
 42
0.0
 43
0.0
 44
0.0
 45
0.0
 46
0.0
 47
0.0
 48
0.0
 49
0.0
140
0.0
141
0.0
142
1.0
143
1.0
 70
   688
 72
     1
 73
     0
 74
     5
  7

 75
    16
147
1.0
148
0.0
149
0.0
100
AcDbLayout
  1
Layout2
 70
     1
 71
     2
 10
0.0
 20
0.0
 11
0.0
 21
0.0
 12
0.0
 22
0.0
 32
0.0
 14
0.0
 24
0.0
 34
0.0
 15
0.0
 25
0.0
 35
0.0
146
0.0
 13
0.0
 23
0.0
 33
0.0
 16
1.0
 26
0.0
 36
0.0
 17
0.0
 27
1.0
 37
0.0
 76
     0
330
23
  0
LAYOUT
  5
22
102
{ACAD_REACTORS
330
1A
102
}
330
1A
100
AcDbPlotSettings
  1

  2
none_device
  4
Letter_(8.50_x_11.00_Inches)
  6

 40
6.35
 41
6.35
 42
6.35000508
 43
6.35000508
 44
215.9
 45
279.4
 46
0.0
 47
0.0
 48
0.0
 49
0.0
140
0.0
141
0.0
142
1.0
143
1.0
 70
  1712
 72
     1
 73
     0
 74
     0
  7

 75
     0
147
1.0
148
0.0
149
0.0
100
AcDbLayout
  1
Model
 70
     1
 71
     0
 10
0.0
 20
0.0
 11
297.0
 21
210.0
 12
0.0
 22
0.0
 32
0.0
 14
0.0
 24
0.0
 34
0.0
 15
297.0
 25
210.0
 35
0.0
146
0.0
 13
0.0
 23
0.0
 33
0.0
 16
1.0
 26
0.0
 36
0.0
 17
0.0
 27
1.0
 37
0.0
 76
     0
330
1F
331
29
  0
MLINESTYLE
  5
18
102
{ACAD_REACTORS
330
17
102
}
330
17
100
AcDbMlineStyle
  2
Standard
 70
     0
  3

 62
   256
 51
90.0
 52
90.0
 71
     2
 49
0.5
 62
   256
  6
BYLAYER
 49
-0.5
 62
   256
  6
BYLAYER
  0
ACDBPLACEHOLDER
  5
F
102
{ACAD_REACTORS
330
E
102
}
330
E
  0
SCALE
  5
48
102
{ACAD_REACTORS
330
47
102
}
330
47
100
AcDbScale
 70
     0
300
1:1
140
1.0
141
1.0
290
     1
  0
SCALE
  5
49
102
{ACAD_REACTORS
330
47
102
}
330
47
100
AcDbScale
 70
     0
300
1:2
140
1.0
141
2.0
290
     0
  0
SCALE
  5
4A
102
{ACAD_REACTORS
330
47
102
}
330
47
100
AcDbScale
 70
     0
300
1:4
140
1.0
141
4.0
290
     0
  0
SCALE
  5
4B
102
{ACAD_REACTORS
330
47
102
}
330
47
100
AcDbScale
 70
     0
300
1:5
140
1.0
141
5.0
290
     0
  0
SCALE
  5
4C
102
{ACAD_REACTORS
330
47
102
}
330
47
100
AcDbScale
 70
     0
300
1:8
140
1.0
141
8.0
290
     0
  0
SCALE
  5
4D
102
{ACAD_REACTORS
330
47
102
}
330
47
100
AcDbScale
 70
     0
300
1:10
140
1.0
141
10.0
290
     0
  0
SCALE
  5
4E
102
{ACAD_REACTORS
330
47
102
}
330
47
100
AcDbScale
 70
     0
300
1:16
140
1.0
141
16.0
290
     0
  0
SCALE
  5
4F
102
{ACAD_REACTORS
330
47
102
}
330
47
100
AcDbScale
 70
     0
300
1:20
140
1.0
141
20.0
290
     0
  0
SCALE
  5
50
102
{ACAD_REACTORS
330
47
102
}
330
47
100
AcDbScale
 70
     0
300
1:30
140
1.0
141
30.0
290
     0
  0
SCALE
  5
51
102
{ACAD_REACTORS
330
47
102
}
330
47
100
AcDbScale
 70
     0
300
1:40
140
1.0
141
40.0
290
     0
  0
SCALE
  5
52
102
{ACAD_REACTORS
330
47
102
}
330
47
100
AcDbScale
 70
     0
300
1:50
140
1.0
141
50.0
290
     0
  0
SCALE
  5
53
102
{ACAD_REACTORS
330
47
102
}
330
47
100
AcDbScale
 70
     0
300
1:100
140
1.0
141
100.0
290
     0
  0
SCALE
  5
54
102
{ACAD_REACTORS
330
47
102
}
330
47
100
AcDbScale
 70
     0
300
2:1
140
2.0
141
1.0
290
     0
  0
SCALE
  5
55
102
{ACAD_REACTORS
330
47
102
}
330
47
100
AcDbScale
 70
     0
300
4:1
140
4.0
141
1.0
290
     0
  0
SCALE
  5
56
102
{ACAD_REACTORS
330
47
102
}
330
47
100
AcDbScale
 70
     0
300
8:1
140
8.0
141
1.0
290
     0
  0
SCALE
  5
57
102
{ACAD_REACTORS
330
47
102
}
330
47
100
AcDbScale
 70
     0
300
10:1
140
10.0
141
1.0
290
     0
  0
SCALE
  5
58
102
{ACAD_REACTORS
330
47
102
}
330
47
100
AcDbScale
 70
     0
300
100:1
140
100.0
141
1.0
290
     0
  0
SCALE
  5
59
102
{ACAD_REACTORS
330
47
102
}
330
47
100
AcDbScale
 70
     0
300
1/128" = 1'-0"
140
0.0078125
141
12.0
290
     0
  0
SCALE
  5
5A
102
{ACAD_REACTORS
330
47
102
}
330
47
100
AcDbScale
 70
     0
300
1/64" = 1'-0"
140
0.015625
141
12.0
290
     0
  0
SCALE
  5
5B
102
{ACAD_REACTORS
330
47
102
}
330
47
100
AcDbScale
 70
     0
300
1/32" = 1'-0"
140
0.03125
141
12.0
290
     0
  0
SCALE
  5
5C
102
{ACAD_REACTORS
330
47
102
}
330
47
100
AcDbScale
 70
     0
300
1/16" = 1'-0"
140
0.0625
141
12.0
290
     0
  0
SCALE
  5
5D
102
{ACAD_REACTORS
330
47
102
}
330
47
100
AcDbScale
 70
     0
300
3/32" = 1'-0"
140
0.09375
141
12.0
290
     0
  0
SCALE
  5
5E
102
{ACAD_REACTORS
330
47
102
}
330
47
100
AcDbScale
 70
     0
300
1/8" = 1'-0"
140
0.125
141
12.0
290
     0
  0
SCALE
  5
5F
102
{ACAD_REACTORS
330
47
102
}
330
47
100
AcDbScale
 70
     0
300
3/16" = 1'-0"
140
0.1875
141
12.0
290
     0
  0
SCALE
  5
60
102
{ACAD_REACTORS
330
47
102
}
330
47
100
AcDbScale
 70
     0
300
1/4" = 1'-0"
140
0.25
141
12.0
290
     0
  0
SCALE
  5
61
102
{ACAD_REACTORS
330
47
102
}
330
47
100
AcDbScale
 70
     0
300
3/8" = 1'-0"
140
0.375
141
12.0
290
     0
  0
SCALE
  5
62
102
{ACAD_REACTORS
330
47
102
}
330
47
100
AcDbScale
 70
     0
300
1/2" = 1'-0"
140
0.5
141
12.0
290
     0
  0
SCALE
  5
63
102
{ACAD_REACTORS
330
47
102
}
330
47
100
AcDbScale
 70
     0
300
3/4" = 1'-0"
140
0.75
141
12.0
290
     0
  0
SCALE
  5
64
102
{ACAD_REACTORS
330
47
102
}
330
47
100
AcDbScale
 70
     0
300
1" = 1'-0"
140
1.0
141
12.0
290
     0
  0
SCALE
  5
65
102
{ACAD_REACTORS
330
47
102
}
330
47
100
AcDbScale
 70
     0
300
1-1/2" = 1'-0"
140
1.5
141
12.0
290
     0
  0
SCALE
  5
66
102
{ACAD_REACTORS
330
47
102
}
330
47
100
AcDbScale
 70
     0
300
3" = 1'-0"
140
3.0
141
12.0
290
     0
  0
SCALE
  5
67
102
{ACAD_REACTORS
330
47
102
}
330
47
100
AcDbScale
 70
     0
300
6" = 1'-0"
140
6.0
141
12.0
290
     0
  0
SCALE
  5
68
102
{ACAD_REACTORS
330
47
102
}
330
47
100
AcDbScale
 70
     0
300
1'-0" = 1'-0"
140
12.0
141
12.0
290
     0
  0
ENDSEC
  0
EOF
