  0
SECTION
  2
HEADER
  9
$ACADVER
  1
AC1015
  9
$ACADMAINTVER
 70
     6
  9
$DWGCODEPAGE
  3
ANSI_1252
  9
$INSBASE
 10
0.0
 20
0.0
 30
0.0
  9
$EXTMIN
 10
0.0
 20
0.0
 30
0.0
  9
$EXTMAX
 10
2970.0
 20
2100.0
 30
0.0
  9
$LIMMIN
 10
0.0
 20
0.0
  9
$LIMMAX
 10
2970.0
 20
2100.0
  9
$ORTHOMODE
 70
     0
  9
$REGENMODE
 70
     1
  9
$FILLMODE
 70
     1
  9
$QTEXTMODE
 70
     0
  9
$MIRRTEXT
 70
     1
  9
$LTSCALE
 40
10.0
  9
$ATTMODE
 70
     1
  9
$TEXTSIZE
 40
35.0
  9
$TRACEWID
 40
1.0
  9
$TEXTSTYLE
  7
Standard
  9
$CLAYER
  8
0
  9
$CELTYPE
  6
ByLayer
  9
$CECOLOR
 62
   256
  9
$CELTSCALE
 40
1.0
  9
$DISPSILH
 70
     0
  9
$DIMSCALE
 40
1.0
  9
$DIMASZ
 40
33.02
  9
$DIMEXO
 40
10.0
  9
$DIMDLI
 40
3.75
  9
$DIMRND
 40
0.0
  9
$DIMDLE
 40
0.0
  9
$DIMEXE
 40
10.0
  9
$DIMTP
 40
0.0
  9
$DIMTM
 40
0.0
  9
$DIMTXT
 40
35.0
  9
$DIMCEN
 40
2.5
  9
$DIMTSZ
 40
0.0
  9
$DIMTOL
 70
     0
  9
$DIMLIM
 70
     0
  9
$DIMTIH
 70
     1
  9
$DIMTOH
 70
     1
  9
$DIMSE1
 70
     0
  9
$DIMSE2
 70
     0
  9
$DIMTAD
 70
     1
  9
$DIMZIN
 70
     0
  9
$DIMBLK
  1

  9
$DIMASO
 70
     1
  9
$DIMSHO
 70
     1
  9
$DIMPOST
  1

  9
$DIMAPOST
  1

  9
$DIMALT
 70
     0
  9
$DIMALTD
 70
     3
  9
$DIMALTF
 40
0.0393700787
  9
$DIMLFAC
 40
1.0
  9
$DIMTOFL
 70
     1
  9
$DIMTVP
 40
0.0
  9
$DIMTIX
 70
     0
  9
$DIMSOXD
 70
     0
  9
$DIMSAH
 70
     0
  9
$DIMBLK1
  1

  9
$DIMBLK2
  1

  9
$DIMSTYLE
  2
ISO-25
  9
$DIMCLRD
 70
     0
  9
$DIMCLRE
 70
     0
  9
$DIMCLRT
 70
     0
  9
$DIMTFAC
 40
1.0
  9
$DIMGAP
 40
15.24
  9
$DIMJUST
 70
     0
  9
$DIMSD1
 70
     0
  9
$DIMSD2
 70
     0
  9
$DIMTOLJ
 70
     0
  9
$DIMTZIN
 70
     0
  9
$DIMALTZ
 70
     0
  9
$DIMALTTZ
 70
     0
  9
$DIMUPT
 70
     0
  9
$DIMDEC
 70
     2
  9
$DIMTDEC
 70
     2
  9
$DIMALTU
 70
     2
  9
$DIMALTTD
 70
     3
  9
$DIMTXSTY
  7
Standard
  9
$DIMAUNIT
 70
     0
  9
$DIMADEC
 70
     2
  9
$DIMALTRND
 40
0.0
  9
$DIMAZIN
 70
     0
  9
$DIMDSEP
 70
    44
  9
$DIMATFIT
 70
     3
  9
$DIMFRAC
 70
     0
  9
$DIMLDRBLK
  1

  9
$DIMLUNIT
 70
     2
  9
$DIMLWD
 70
    -2
  9
$DIMLWE
 70
    -2
  9
$DIMTMOVE
 70
     0
  9
$LUNITS
 70
     2
  9
$LUPREC
 70
     2
  9
$SKETCHINC
 40
1.0
  9
$FILLETRAD
 40
10.0
  9
$AUNITS
 70
     0
  9
$AUPREC
 70
     2
  9
$MENU
  1
.
  9
$ELEVATION
 40
0.0
  9
$PELEVATION
 40
0.0
  9
$THICKNESS
 40
0.0
  9
$LIMCHECK
 70
     0
  9
$CHAMFERA
 40
0.0
  9
$CHAMFERB
 40
0.0
  9
$CHAMFERC
 40
0.0
  9
$CHAMFERD
 40
0.0
  9
$SKPOLY
 70
     0
  9
$TDCREATE
 40
2457302.468335914
  9
$TDUCREATE
 40
2457302.385002581
  9
$TDUPDATE
 40
2457302.468344086
  9
$TDUUPDATE
 40
2457302.385010752
  9
$TDINDWG
 40
0.0000000116
  9
$TDUSRTIMER
 40
0.0000000116
  9
$USRTIMER
 70
     1
  9
$ANGBASE
 50
0.0
  9
$ANGDIR
 70
     0
  9
$PDMODE
 70
     0
  9
$PDSIZE
 40
-1.0
  9
$PLINEWID
 40
0.0
  9
$SPLFRAME
 70
     0
  9
$SPLINETYPE
 70
     6
  9
$SPLINESEGS
 70
     8
  9
$HANDSEED
  5
42E
  9
$SURFTAB1
 70
     6
  9
$SURFTAB2
 70
     6
  9
$SURFTYPE
 70
     6
  9
$SURFU
 70
     6
  9
$SURFV
 70
     6
  9
$UCSBASE
  2

  9
$UCSNAME
  2

  9
$UCSORG
 10
0.0
 20
0.0
 30
0.0
  9
$UCSXDIR
 10
1.0
 20
0.0
 30
0.0
  9
$UCSYDIR
 10
0.0
 20
1.0
 30
0.0
  9
$UCSORTHOREF
  2

  9
$UCSORTHOVIEW
 70
     0
  9
$UCSORGTOP
 10
0.0
 20
0.0
 30
0.0
  9
$UCSORGBOTTOM
 10
0.0
 20
0.0
 30
0.0
  9
$UCSORGLEFT
 10
0.0
 20
0.0
 30
0.0
  9
$UCSORGRIGHT
 10
0.0
 20
0.0
 30
0.0
  9
$UCSORGFRONT
 10
0.0
 20
0.0
 30
0.0
  9
$UCSORGBACK
 10
0.0
 20
0.0
 30
0.0
  9
$PUCSBASE
  2

  9
$PUCSNAME
  2

  9
$PUCSORG
 10
0.0
 20
0.0
 30
0.0
  9
$PUCSXDIR
 10
1.0
 20
0.0
 30
0.0
  9
$PUCSYDIR
 10
0.0
 20
1.0
 30
0.0
  9
$PUCSORTHOREF
  2

  9
$PUCSORTHOVIEW
 70
     0
  9
$PUCSORGTOP
 10
0.0
 20
0.0
 30
0.0
  9
$PUCSORGBOTTOM
 10
0.0
 20
0.0
 30
0.0
  9
$PUCSORGLEFT
 10
0.0
 20
0.0
 30
0.0
  9
$PUCSORGRIGHT
 10
0.0
 20
0.0
 30
0.0
  9
$PUCSORGFRONT
 10
0.0
 20
0.0
 30
0.0
  9
$PUCSORGBACK
 10
0.0
 20
0.0
 30
0.0
  9
$USERI1
 70
     0
  9
$USERI2
 70
     0
  9
$USERI3
 70
     0
  9
$USERI4
 70
     0
  9
$USERI5
 70
     0
  9
$USERR1
 40
0.0
  9
$USERR2
 40
0.0
  9
$USERR3
 40
0.0
  9
$USERR4
 40
0.0
  9
$USERR5
 40
0.0
  9
$WORLDVIEW
 70
     1
  9
$SHADEDGE
 70
     3
  9
$SHADEDIF
 70
    70
  9
$TILEMODE
 70
     1
  9
$MAXACTVP
 70
    64
  9
$PINSBASE
 10
0.0
 20
0.0
 30
0.0
  9
$PLIMCHECK
 70
     0
  9
$PEXTMIN
 10
1.0000000000E+20
 20
1.0000000000E+20
 30
1.0000000000E+20
  9
$PEXTMAX
 10
-1.0000000000E+20
 20
-1.0000000000E+20
 30
-1.0000000000E+20
  9
$PLIMMIN
 10
0.0
 20
0.0
  9
$PLIMMAX
 10
420.0
 20
297.0
  9
$UNITMODE
 70
     0
  9
$VISRETAIN
 70
     1
  9
$PLINEGEN
 70
     0
  9
$PSLTSCALE
 70
     1
  9
$TREEDEPTH
 70
  3020
  9
$CMLSTYLE
  2
Standard
  9
$CMLJUST
 70
     0
  9
$CMLSCALE
 40
20.0
  9
$PROXYGRAPHICS
 70
     1
  9
$MEASUREMENT
 70
     1
  9
$CELWEIGHT
370
    -1
  9
$ENDCAPS
280
     0
  9
$JOINSTYLE
280
     0
  9
$LWDISPLAY
290
     1
  9
$INSUNITS
 70
     4
  9
$HYPERLINKBASE
  1

  9
$STYLESHEET
  1

  9
$XEDIT
290
     1
  9
$CEPSNTYPE
380
     0
  9
$PSTYLEMODE
290
     1
  9
$FINGERPRINTGUID
  2
{DCAB1270-9245-4F7B-B79C-B1227C68CC35}
  9
$VERSIONGUID
  2
{FAEB1C32-E019-11D5-929B-00C0DF256EC4}
  9
$EXTNAMES
290
     1
  9
$PSVPSCALE
 40
0.0
  9
$OLESTARTUP
290
     0
  0
ENDSEC
  0
SECTION
  2
CLASSES
  0
CLASS
  1
ACDBDICTIONARYWDFLT
  2
AcDbDictionaryWithDefault
  3
ObjectDBX Classes
 90
        0
280
     0
281
     0
  0
CLASS
  1
VISUALSTYLE
  2
AcDbVisualStyle
  3
ObjectDBX Classes
 90
     4095
280
     0
281
     0
  0
CLASS
  1
MATERIAL
  2
AcDbMaterial
  3
ObjectDBX Classes
 90
     1153
280
     0
281
     0
  0
CLASS
  1
SCALE
  2
AcDbScale
  3
ObjectDBX Classes
 90
     1153
280
     0
281
     0
  0
CLASS
  1
TABLESTYLE
  2
AcDbTableStyle
  3
ObjectDBX Classes
 90
     4095
280
     0
281
     0
  0
CLASS
  1
MLEADERSTYLE
  2
AcDbMLeaderStyle
  3
ACDB_MLEADERSTYLE_CLASS
 90
     4095
280
     0
281
     0
  0
CLASS
  1
SUN
  2
AcDbSun
  3
SCENEOE
 90
     1153
280
     0
281
     0
  0
CLASS
  1
ACDBPLACEHOLDER
  2
AcDbPlaceHolder
  3
ObjectDBX Classes
 90
        0
280
     0
281
     0
  0
CLASS
  1
LAYOUT
  2
AcDbLayout
  3
ObjectDBX Classes
 90
        0
280
     0
281
     0
  0
ENDSEC
  0
SECTION
  2
TABLES
  0
TABLE
  2
VPORT
  5
8
330
0
100
AcDbSymbolTable
 70
     1
  0
VPORT
  5
29
330
8
100
AcDbSymbolTableRecord
100
AcDbViewportTableRecord
  2
*Active
 70
     0
 10
0.0
 20
0.0
 11
1.0
 21
1.0
 12
1485.0
 22
1050.0
 13
0.0
 23
0.0
 14
10.0
 24
10.0
 15
10.0
 25
10.0
 16
0.0
 26
0.0
 36
1.0
 17
0.0
 27
0.0
 37
0.0
 40
2100.0
 41
1.4142857143
 42
50.0
 43
0.0
 44
0.0
 50
0.0
 51
0.0
 71
     0
 72
  2000
 73
     1
 74
     3
 75
     0
 76
     0
 77
     0
 78
     0
281
     0
 65
     1
110
0.0
120
0.0
130
0.0
111
1.0
121
0.0
131
0.0
112
0.0
122
1.0
132
0.0
 79
     0
146
0.0
  0
ENDTAB
  0
TABLE
  2
LTYPE
  5
5
330
0
100
AcDbSymbolTable
 70
     6
  0
LTYPE
  5
14
330
5
100
AcDbSymbolTableRecord
100
AcDbLinetypeTableRecord
  2
ByBlock
 70
     0
  3

 72
    65
 73
     0
 40
0.0
  0
LTYPE
  5
15
330
5
100
AcDbSymbolTableRecord
100
AcDbLinetypeTableRecord
  2
ByLayer
 70
     0
  3

 72
    65
 73
     0
 40
0.0
  0
LTYPE
  5
16
330
5
100
AcDbSymbolTableRecord
100
AcDbLinetypeTableRecord
  2
Continuous
 70
     0
  3
Solid line
 72
    65
 73
     0
 40
0.0
  0
LTYPE
  5
6E
330
5
100
AcDbSymbolTableRecord
100
AcDbLinetypeTableRecord
  2
HIDDEN
 70
     0
  3
Hidden __ __ __ __ __ __ __ __ __ __ __ __ __ __
 72
    65
 73
     2
 40
1.905
 49
1.27
 74
     0
 49
-0.635
 74
     0
  0
LTYPE
  5
6F
330
5
100
AcDbSymbolTableRecord
100
AcDbLinetypeTableRecord
  2
PHANTOM
 70
     0
  3
Phantom ______  __  __  ______  __  __  ______
 72
    65
 73
     6
 40
12.7
 49
6.35
 74
     0
 49
-1.27
 74
     0
 49
1.27
 74
     0
 49
-1.27
 74
     0
 49
1.27
 74
     0
 49
-1.27
 74
     0
  0
LTYPE
  5
70
330
5
100
AcDbSymbolTableRecord
100
AcDbLinetypeTableRecord
  2
CENTER
 70
     0
  3
Center ____ _ ____ _ ____ _ ____ _ ____ _ ____
 72
    65
 73
     4
 40
10.16
 49
6.35
 74
     0
 49
-1.27
 74
     0
 49
1.27
 74
     0
 49
-1.27
 74
     0
  0
LTYPE
  5
71
330
5
100
AcDbSymbolTableRecord
100
AcDbLinetypeTableRecord
  2
CENTERX2
 70
     0
  3
Center (2x) ________  __  ________  __  _____
 72
    65
 73
     4
 40
20.32
 49
12.7
 74
     0
 49
-2.54
 74
     0
 49
2.54
 74
     0
 49
-2.54
 74
     0
  0
LTYPE
  5
72
330
5
100
AcDbSymbolTableRecord
100
AcDbLinetypeTableRecord
  2
DOT2
 70
     0
  3
Dot (.5x) ........................................
 72
    65
 73
     2
 40
0.635
 49
0.0
 74
     0
 49
-0.635
 74
     0
  0
ENDTAB
  0
TABLE
  2
LAYER
  5
2
330
0
100
AcDbSymbolTable
 70
     2
  0
LAYER
  5
10
330
2
100
AcDbSymbolTableRecord
100
AcDbLayerTableRecord
  2
0
 70
     0
 62
     7
  6
Continuous
370
    -3
390
F
  0
LAYER
  5
73
330
2
100
AcDbSymbolTableRecord
100
AcDbLayerTableRecord
  2
FORMAT
 70
     0
 62
     7
  6
Continuous
370
    -3
390
F
  0
ENDTAB
  0
TABLE
  2
STYLE
  5
3
330
0
100
AcDbSymbolTable
 70
     3
  0
STYLE
  5
11
330
3
100
AcDbSymbolTableRecord
100
AcDbTextStyleTableRecord
  2
Standard
 70
     0
 40
0.0
 41
1.0
 50
0.0
 71
     0
 42
35.0
  3
txt
  4

  0
STYLE
  5
89
330
3
100
AcDbSymbolTableRecord
100
AcDbTextStyleTableRecord
  2
SLDTEXTSTYLE0
 70
     0
 40
0.0
 41
0.75
 50
0.0
 71
     0
 42
35.0
  3
TXT
  4

  0
STYLE
  5
8F
330
3
100
AcDbSymbolTableRecord
100
AcDbTextStyleTableRecord
  2
SLDTEXTSTYLE1
 70
     0
 40
0.0
 41
0.6923076923
 50
0.0
 71
     0
 42
35.0
  3
TXT
  4

  0
ENDTAB
  0
TABLE
  2
VIEW
  5
6
330
0
100
AcDbSymbolTable
 70
     0
  0
ENDTAB
  0
TABLE
  2
UCS
  5
7
330
0
100
AcDbSymbolTable
 70
     0
  0
ENDTAB
  0
TABLE
  2
APPID
  5
9
330
0
100
AcDbSymbolTable
 70
     1
  0
APPID
  5
12
330
9
100
AcDbSymbolTableRecord
100
AcDbRegAppTableRecord
  2
ACAD
 70
     0
  0
ENDTAB
  0
TABLE
  2
DIMSTYLE
  5
A
330
0
100
AcDbSymbolTable
 70
     1
100
AcDbDimStyleTable
  0
DIMSTYLE
105
27
330
A
100
AcDbSymbolTableRecord
100
AcDbDimStyleTableRecord
  2
ISO-25
 70
     0
 41
2.5
 42
0.625
 43
3.75
 44
1.25
 73
     0
 74
     0
 77
     1
 78
     8
140
2.5
141
2.5
143
0.0393700787
147
0.625
171
     3
172
     1
178
     0
271
     2
272
     2
274
     3
278
    44
283
     0
284
     8
340
11
  0
ENDTAB
  0
TABLE
  2
BLOCK_RECORD
  5
1
330
0
100
AcDbSymbolTable
 70
     1
  0
BLOCK_RECORD
  5
1F
330
1
100
AcDbSymbolTableRecord
100
AcDbBlockTableRecord
  2
*Model_Space
340
22
  0
BLOCK_RECORD
  5
1B
330
1
100
AcDbSymbolTableRecord
100
AcDbBlockTableRecord
  2
*Paper_Space
340
1E
  0
BLOCK_RECORD
  5
23
330
1
100
AcDbSymbolTableRecord
100
AcDbBlockTableRecord
  2
*Paper_Space0
340
26
  0
ENDTAB
  0
ENDSEC
  0
SECTION
  2
BLOCKS
  0
BLOCK
  5
20
330
1F
100
AcDbEntity
  8
0
100
AcDbBlockBegin
  2
*Model_Space
 70
     0
 10
0.0
 20
0.0
 30
0.0
  3
*Model_Space
  1

  0
ENDBLK
  5
21
330
1F
100
AcDbEntity
  8
0
100
AcDbBlockEnd
  0
BLOCK
  5
1C
330
1B
100
AcDbEntity
 67
     1
  8
0
100
AcDbBlockBegin
  2
*Paper_Space
 70
     0
 10
0.0
 20
0.0
 30
0.0
  3
*Paper_Space
  1

  0
ENDBLK
  5
1D
330
1B
100
AcDbEntity
 67
     1
  8
0
100
AcDbBlockEnd
  0
BLOCK
  5
24
330
23
100
AcDbEntity
  8
0
100
AcDbBlockBegin
  2
*Paper_Space0
 70
     0
 10
0.0
 20
0.0
 30
0.0
  3
*Paper_Space0
  1

  0
ENDBLK
  5
25
330
23
100
AcDbEntity
  8
0
100
AcDbBlockEnd
  0
ENDSEC
  0
SECTION
  2
ENTITIES
  0
LINE
  5
74
330
1F
100
AcDbEntity
  8
0
  6
Continuous
 62
     7
370
     0
100
AcDbLine
 10
2920.0
 20
2050.0
 30
0.0
 11
2920.0
 21
50.0
 31
0.0
  0
LINE
  5
75
330
1F
100
AcDbEntity
  8
0
  6
Continuous
 62
     7
370
     0
100
AcDbLine
 10
2000.4777254774
 20
347.5
 30
0.0
 11
2920.0
 21
347.5
 31
0.0
  0
LINE
  5
76
330
1F
100
AcDbEntity
  8
0
  6
Continuous
 62
     7
370
     0
100
AcDbLine
 10
1594.0
 20
92.5
 30
0.0
 11
2920.0
 21
92.5
 31
0.0
  0
LINE
  5
77
330
1F
100
AcDbEntity
  8
0
  6
Continuous
 62
     7
370
     0
100
AcDbLine
 10
2920.0
 20
220.0
 30
0.0
 11
2790.0
 21
220.0
 31
0.0
  0
LINE
  5
78
330
1F
100
AcDbEntity
  8
0
  6
Continuous
 62
     7
370
     0
100
AcDbLine
 10
1594.0
 20
220.0
 30
0.0
 11
2000.4777254774
 21
220.0
 31
0.0
  0
LINE
  5
79
330
1F
100
AcDbEntity
  8
0
  6
Continuous
 62
     7
370
     0
100
AcDbLine
 10
2000.4777254774
 20
347.5
 30
0.0
 11
2000.4777254774
 21
50.0
 31
0.0
  0
LINE
  5
7A
330
1F
100
AcDbEntity
  8
0
  6
Continuous
 62
     7
370
     0
100
AcDbLine
 10
2478.0
 20
50.0
 30
0.0
 11
2478.0
 21
92.5
 31
0.0
  0
LINE
  5
7B
330
1F
100
AcDbEntity
  8
0
  6
Continuous
 62
     7
370
     0
100
AcDbLine
 10
2790.0
 20
92.5
 30
0.0
 11
2790.0
 21
154.9496936018
 31
0.0
  0
LINE
  5
7C
330
1F
100
AcDbEntity
  8
0
  6
Continuous
 62
     7
370
     0
100
AcDbLine
 10
1594.0
 20
347.5
 30
0.0
 11
2000.4777254774
 21
347.5
 31
0.0
  0
LINE
  5
7D
330
1F
100
AcDbEntity
  8
0
  6
Continuous
 62
     7
370
     0
100
AcDbLine
 10
2920.0
 20
154.9496936018
 30
0.0
 11
2790.0
 21
154.9496936018
 31
0.0
  0
LINE
  5
7E
330
1F
100
AcDbEntity
  8
0
  6
Continuous
 62
     7
370
     0
100
AcDbLine
 10
2000.4777254774
 20
220.0
 30
0.0
 11
2790.0
 21
220.0
 31
0.0
  0
LINE
  5
7F
330
1F
100
AcDbEntity
  8
0
  6
Continuous
 62
     7
370
     0
100
AcDbLine
 10
1594.0
 20
347.5
 30
0.0
 11
1594.0
 21
220.0
 31
0.0
  0
LINE
  5
80
330
1F
100
AcDbEntity
  8
0
  6
Continuous
 62
     7
370
     0
100
AcDbLine
 10
1594.0
 20
220.0
 30
0.0
 11
1705.7777254774
 21
220.0
 31
0.0
  0
LINE
  5
81
330
1F
100
AcDbEntity
  8
0
  6
Continuous
 62
     7
370
     0
100
AcDbLine
 10
2920.0
 20
2050.0
 30
0.0
 11
50.0
 21
2050.0
 31
0.0
  0
LINE
  5
82
330
1F
100
AcDbEntity
  8
0
  6
Continuous
 62
     7
370
     0
100
AcDbLine
 10
50.0
 20
2050.0
 30
0.0
 11
50.0
 21
50.0
 31
0.0
  0
LINE
  5
83
330
1F
100
AcDbEntity
  8
0
  6
Continuous
 62
     7
370
     0
100
AcDbLine
 10
50.0
 20
50.0
 30
0.0
 11
2920.0
 21
50.0
 31
0.0
  0
LINE
  5
84
330
1F
100
AcDbEntity
  8
0
  6
Continuous
 62
     7
370
     0
100
AcDbLine
 10
1705.7777254774
 20
220.0
 30
0.0
 11
1594.0
 21
220.0
 31
0.0
  0
LINE
  5
85
330
1F
100
AcDbEntity
  8
0
  6
Continuous
 62
     7
370
     0
100
AcDbLine
 10
2790.0
 20
154.9496936018
 30
0.0
 11
2790.0
 21
220.0
 31
0.0
  0
LINE
  5
86
330
1F
100
AcDbEntity
  8
0
  6
Continuous
 62
     7
370
     0
100
AcDbLine
 10
1594.0
 20
283.75
 30
0.0
 11
2000.4777254774
 21
283.75
 31
0.0
  0
LINE
  5
87
330
1F
100
AcDbEntity
  8
0
  6
Continuous
 62
     7
370
     0
100
AcDbLine
 10
1594.0
 20
220.0
 30
0.0
 11
1594.0
 21
92.5
 31
0.0
  0
LINE
  5
88
330
1F
100
AcDbEntity
  8
0
  6
Continuous
 62
     7
370
     0
100
AcDbLine
 10
1594.0
 20
50.0
 30
0.0
 11
1594.0
 21
92.5
 31
0.0
  0
MTEXT
  5
8A
330
1F
100
AcDbEntity
  8
0
  6
Continuous
 62
     7
370
     0
100
AcDbMText
 10
2802.7693727994
 20
194.3244494768
 30
0.0
 40
15.0
 41
0.0
 71
     1
 72
     1
  1
Blattformat
  7
SLDTEXTSTYLE0
 73
     1
 44
1.0
  0
MTEXT
  5
8B
330
1F
100
AcDbEntity
  8
0
  6
Continuous
 62
     7
370
     0
100
AcDbMText
 10
1623.4150305537
 20
201.3202491599
 30
0.0
 40
15.0
 41
0.0
 71
     1
 72
     1
  1
Werkstoff:
  7
SLDTEXTSTYLE0
 73
     1
 44
1.0
  0
MTEXT
  5
8C
330
1F
100
AcDbEntity
  8
0
  6
Continuous
 62
     7
370
     0
100
AcDbMText
 10
2057.5192308068
 20
322.4610146297
 30
0.0
 40
15.0
 41
0.0
 71
     1
 72
     1
  1
Artikelnummer
  7
SLDTEXTSTYLE0
 73
     1
 44
1.0
  0
MTEXT
  5
8D
330
1F
100
AcDbEntity
  8
0
  6
Continuous
 62
     7
370
     0
100
AcDbMText
 10
2057.5192308068
 20
201.3202491599
 30
0.0
 40
15.0
 41
0.0
 71
     1
 72
     1
  1
Hersteller
  7
SLDTEXTSTYLE0
 73
     1
 44
1.0
  0
MTEXT
  5
8E
330
1F
100
AcDbEntity
  8
0
  6
Continuous
 62
     7
370
     0
100
AcDbMText
 10
2057.5192308068
 20
79.0008727453
 30
0.0
 40
15.0
 41
0.0
 71
     1
 72
     1
  1
Massstab: 1:10
  7
SLDTEXTSTYLE0
 73
     1
 44
1.0
  0
MTEXT
  5
90
330
1F
100
AcDbEntity
  8
0
  6
Continuous
 62
     7
370
     0
100
AcDbMText
 10
2492.7829442782
 20
79.0008727453
 30
0.0
 40
15.0
 41
0.0
 71
     1
 72
     1
  1
Blatt 1 von 1
  7
SLDTEXTSTYLE1
 73
     1
 44
1.0
  0
MTEXT
  5
91
330
1F
100
AcDbEntity
  8
0
  6
Continuous
 62
     7
370
     0
100
AcDbMText
 10
2830.1820125196
 20
142.1449358799
 30
0.0
 40
29.1041666667
 41
0.0
 71
     1
 72
     1
  1
A4
  7
SLDTEXTSTYLE0
 73
     1
 44
1.0
  0
MTEXT
  5
92
330
1F
100
AcDbEntity
  8
0
  6
Continuous
 62
     7
370
     0
100
AcDbMText
 10
1785.0786381088
 20
327.046949724
 30
0.0
 40
15.0
 41
0.0
 71
     2
 72
     1
  1
Datum
  7
SLDTEXTSTYLE0
 73
     1
 44
1.0
  0
MTEXT
  5
93
330
1F
100
AcDbEntity
  8
0
  6
Continuous
 62
     7
370
     0
100
AcDbMText
 10
1787.1481364669
 20
261.7832478583
 30
0.0
 40
15.0
 41
0.0
 71
     2
 72
     1
  1
06.10.2015
  7
SLDTEXTSTYLE0
 73
     1
 44
1.0
  0
MTEXT
  5
94
330
1F
100
AcDbEntity
  8
0
  6
Continuous
 62
     7
370
     0
100
AcDbMText
 10
1705.3538374749
 20
78.8197136044
 30
0.0
 40
15.0
 41
0.0
 71
     2
 72
     1
  1
Gewicht 4.540 kg
  7
SLDTEXTSTYLE0
 73
     1
 44
1.0
  0
MTEXT
  5
95
330
1F
100
AcDbEntity
  8
0
  6
Continuous
 62
     7
370
     0
100
AcDbMText
 10
1623.4150305537
 20
152.509315211
 30
0.0
 40
15.875
 41
0.0
 71
     1
 72
     1
  1
1.0037 (S235JR)
  7
SLDTEXTSTYLE0
 73
     1
 44
1.0
  0
MTEXT
  5
96
330
1F
100
AcDbEntity
  8
0
  6
Continuous
 62
     7
370
     0
100
AcDbMText
 10
2057.5192308068
 20
285.7243253402
 30
0.0
 40
42.3333333333
 41
0.0
 71
     1
 72
     1
  1
40.602431.7
  7
SLDTEXTSTYLE0
 73
     1
 44
1.0
  0
MTEXT
  5
97
330
1F
100
AcDbEntity
  8
0
  6
Continuous
 62
     7
370
     0
100
AcDbMText
 10
2621.2837727184
 20
323.0813099959
 30
0.0
 40
15.875
 41
0.0
 71
     1
 72
     1
  1
Feuerverzinkt
  7
SLDTEXTSTYLE0
 73
     1
 44
1.0
  0
MTEXT
  5
98
330
1F
100
AcDbEntity
  8
0
  6
Continuous
 62
     7
370
     0
100
AcDbMText
 10
2492.0381656152
 20
322.4610146297
 30
0.0
 40
15.0
 41
0.0
 71
     1
 72
     1
  1
Oberfläche:
  7
SLDTEXTSTYLE0
 73
     1
 44
1.0
  0
MTEXT
  5
99
330
1F
100
AcDbEntity
  8
0
  6
Continuous
 62
     7
370
     0
100
AcDbMText
 10
2169.9625193882
 20
178.5778061512
 30
0.0
 40
42.3333333333
 41
0.0
 71
     1
 72
     1
  1
FeNau GmbH
  7
SLDTEXTSTYLE0
 73
     1
 44
1.0
  0
LINE
  5
9A
330
1F
100
AcDbEntity
  8
0
  6
Continuous
 62
     7
370
    15
100
AcDbLine
 10
499.0245260735
 20
1581.7216037736
 30
0.0
 11
497.0245260735
 21
1584.3916037736
 31
0.0
  0
LINE
  5
9B
330
1F
100
AcDbEntity
  8
0
  6
Continuous
 62
     7
370
    15
100
AcDbLine
 10
489.7145260735
 20
1584.3916037736
 30
0.0
 11
487.7145260735
 21
1581.7216037736
 31
0.0
  0
LINE
  5
9C
330
1F
100
AcDbEntity
  8
0
  6
Continuous
 62
     7
370
    15
100
AcDbLine
 10
488.3695260735
 20
1582.5960287736
 30
0.0
 11
487.0245260735
 21
1584.3916037736
 31
0.0
  0
LINE
  5
9D
330
1F
100
AcDbEntity
  8
0
  6
Continuous
 62
     7
370
    15
100
AcDbLine
 10
479.7145260735
 20
1584.3916037736
 30
0.0
 11
477.7145260735
 21
1581.7216037736
 31
0.0
  0
LINE
  5
9E
330
1F
100
AcDbEntity
  8
0
  6
Continuous
 62
     7
370
    15
100
AcDbLine
 10
473.3695260735
 20
1511.7216037736
 30
0.0
 11
683.3695260735
 21
1511.7216037736
 31
0.0
  0
CIRCLE
  5
9F
330
1F
100
AcDbEntity
  8
0
  6
Continuous
 62
     7
370
    15
100
AcDbCircle
 10
508.3695260735
 20
1526.7216037736
 30
0.0
 40
6.500000000000057
  0
ARC
  5
A0
330
1F
100
AcDbEntity
  8
0
  6
Continuous
 62
     7
370
    15
100
AcDbCircle
 10
646.8695260735
 20
1526.7216037736
 30
0.0
 40
6.5
100
AcDbArc
 50
270.0
 51
90.0
  0
LINE
  5
A1
330
1F
100
AcDbEntity
  8
0
  6
Continuous
 62
     7
370
    15
100
AcDbLine
 10
646.8695260735
 20
1533.2216037736
 30
0.0
 11
609.8695260735
 21
1533.2216037736
 31
0.0
  0
ARC
  5
A2
330
1F
100
AcDbEntity
  8
0
  6
Continuous
 62
     7
370
    15
100
AcDbCircle
 10
609.8695260735
 20
1526.7216037736
 30
0.0
 40
6.5
100
AcDbArc
 50
90.0
 51
270.0
  0
LINE
  5
A3
330
1F
100
AcDbEntity
  8
0
  6
Continuous
 62
     7
370
    15
100
AcDbLine
 10
683.3695260735
 20
1511.7216037736
 30
0.0
 11
713.3695260735
 21
1541.7216037736
 31
0.0
  0
LINE
  5
A4
330
1F
100
AcDbEntity
  8
0
  6
Continuous
 62
     7
370
    15
100
AcDbLine
 10
713.3695260735
 20
1541.7216037736
 30
0.0
 11
713.3695260735
 21
1581.7216037736
 31
0.0
  0
LINE
  5
A5
330
1F
100
AcDbEntity
  8
0
  6
Continuous
 62
     7
370
    15
100
AcDbLine
 10
473.3695260735
 20
1581.7216037736
 30
0.0
 11
473.3695260735
 21
1511.7216037736
 31
0.0
  0
LINE
  5
A6
330
1F
100
AcDbEntity
  8
0
  6
Continuous
 62
     7
370
    15
100
AcDbLine
 10
713.3695260735
 20
1581.7216037736
 30
0.0
 11
473.3695260735
 21
1581.7216037736
 31
0.0
  0
LINE
  5
A7
330
1F
100
AcDbEntity
  8
0
  6
Continuous
 62
     7
370
    15
100
AcDbLine
 10
609.8695260735
 20
1520.2216037736
 30
0.0
 11
646.8695260735
 21
1520.2216037736
 31
0.0
  0
LINE
  5
A8
330
1F
100
AcDbEntity
  8
0
  6
Continuous
 62
     7
370
    15
100
AcDbLine
 10
489.7145260735
 20
1584.3916037736
 30
0.0
 11
497.0245260735
 21
1584.3916037736
 31
0.0
  0
LINE
  5
A9
330
1F
100
AcDbEntity
  8
0
  6
Continuous
 62
     7
370
    15
100
AcDbLine
 10
487.0245260735
 20
1584.3916037736
 30
0.0
 11
479.7145260735
 21
1584.3916037736
 31
0.0
  0
POINT
  5
AA
330
1F
100
AcDbEntity
  8
0
  6
Continuous
 62
     7
370
     0
100
AcDbPoint
 10
628.3695260735
 20
1520.2216037736
 30
0.0
  0
LINE
  5
AB
330
1F
100
AcDbEntity
  8
0
  6
Continuous
 62
     7
370
    15
100
AcDbLine
 10
1783.5717208848
 20
1581.7216037736
 30
0.0
 11
1781.5717208848
 21
1584.3916037736
 31
0.0
  0
LINE
  5
AC
330
1F
100
AcDbEntity
  8
0
  6
Continuous
 62
     7
370
    15
100
AcDbLine
 10
1774.2617208848
 20
1584.3916037736
 30
0.0
 11
1772.2617208848
 21
1581.7216037736
 31
0.0
  0
LINE
  5
AD
330
1F
100
AcDbEntity
  8
0
  6
Continuous
 62
     7
370
    15
100
AcDbLine
 10
1753.5717208848
 20
1581.7216037736
 30
0.0
 11
1751.5717208848
 21
1584.3916037736
 31
0.0
  0
LINE
  5
AE
330
1F
100
AcDbEntity
  8
0
  6
Continuous
 62
     7
370
    15
100
AcDbLine
 10
1744.2617208848
 20
1584.3916037736
 30
0.0
 11
1742.2617208848
 21
1581.7216037736
 31
0.0
  0
LINE
  5
AF
330
1F
100
AcDbEntity
  8
0
  6
Continuous
 62
     7
370
    15
100
AcDbLine
 10
1513.5717208848
 20
1581.7216037736
 30
0.0
 11
1511.5717208848
 21
1584.3916037736
 31
0.0
  0
LINE
  5
B0
330
1F
100
AcDbEntity
  8
0
  6
Continuous
 62
     7
370
    15
100
AcDbLine
 10
1504.2617208848
 20
1584.3916037736
 30
0.0
 11
1502.2617208848
 21
1581.7216037736
 31
0.0
  0
LINE
  5
B1
330
1F
100
AcDbEntity
  8
0
  6
Continuous
 62
     7
370
    15
100
AcDbLine
 10
1573.5717208848
 20
1581.7216037736
 30
0.0
 11
1571.5717208848
 21
1584.3916037736
 31
0.0
  0
LINE
  5
B2
330
1F
100
AcDbEntity
  8
0
  6
Continuous
 62
     7
370
    15
100
AcDbLine
 10
1564.2617208848
 20
1584.3916037736
 30
0.0
 11
1562.2617208848
 21
1581.7216037736
 31
0.0
  0
LINE
  5
B3
330
1F
100
AcDbEntity
  8
0
  6
Continuous
 62
     7
370
    15
100
AcDbLine
 10
1603.5717208848
 20
1581.7216037736
 30
0.0
 11
1601.5717208848
 21
1584.3916037736
 31
0.0
  0
LINE
  5
B4
330
1F
100
AcDbEntity
  8
0
  6
Continuous
 62
     7
370
    15
100
AcDbLine
 10
1594.2617208848
 20
1584.3916037736
 30
0.0
 11
1592.2617208848
 21
1581.7216037736
 31
0.0
  0
LINE
  5
B5
330
1F
100
AcDbEntity
  8
0
  6
Continuous
 62
     7
370
    15
100
AcDbLine
 10
1813.5717208848
 20
1581.7216037736
 30
0.0
 11
1811.5717208848
 21
1584.3916037736
 31
0.0
  0
LINE
  5
B6
330
1F
100
AcDbEntity
  8
0
  6
Continuous
 62
     7
370
    15
100
AcDbLine
 10
1804.2617208848
 20
1584.3916037736
 30
0.0
 11
1802.2617208848
 21
1581.7216037736
 31
0.0
  0
LINE
  5
B7
330
1F
100
AcDbEntity
  8
0
  6
Continuous
 62
     7
370
    15
100
AcDbLine
 10
1633.5717208848
 20
1581.7216037736
 30
0.0
 11
1631.5717208848
 21
1584.3916037736
 31
0.0
  0
LINE
  5
B8
330
1F
100
AcDbEntity
  8
0
  6
Continuous
 62
     7
370
    15
100
AcDbLine
 10
1624.2617208848
 20
1584.3916037736
 30
0.0
 11
1622.2617208848
 21
1581.7216037736
 31
0.0
  0
LINE
  5
B9
330
1F
100
AcDbEntity
  8
0
  6
Continuous
 62
     7
370
    15
100
AcDbLine
 10
1723.5717208848
 20
1581.7216037736
 30
0.0
 11
1721.5717208848
 21
1584.3916037736
 31
0.0
  0
LINE
  5
BA
330
1F
100
AcDbEntity
  8
0
  6
Continuous
 62
     7
370
    15
100
AcDbLine
 10
1714.2617208848
 20
1584.3916037736
 30
0.0
 11
1712.2617208848
 21
1581.7216037736
 31
0.0
  0
LINE
  5
BB
330
1F
100
AcDbEntity
  8
0
  6
Continuous
 62
     7
370
    15
100
AcDbLine
 10
1693.5717208848
 20
1581.7216037736
 30
0.0
 11
1691.5717208848
 21
1584.3916037736
 31
0.0
  0
LINE
  5
BC
330
1F
100
AcDbEntity
  8
0
  6
Continuous
 62
     7
370
    15
100
AcDbLine
 10
1684.2617208848
 20
1584.3916037736
 30
0.0
 11
1682.2617208848
 21
1581.7216037736
 31
0.0
  0
LINE
  5
BD
330
1F
100
AcDbEntity
  8
0
  6
Continuous
 62
     7
370
    15
100
AcDbLine
 10
1663.5717208848
 20
1581.7216037736
 30
0.0
 11
1661.5717208848
 21
1584.3916037736
 31
0.0
  0
LINE
  5
BE
330
1F
100
AcDbEntity
  8
0
  6
Continuous
 62
     7
370
    15
100
AcDbLine
 10
1654.2617208848
 20
1584.3916037736
 30
0.0
 11
1652.2617208848
 21
1581.7216037736
 31
0.0
  0
LINE
  5
BF
330
1F
100
AcDbEntity
  8
0
  6
Continuous
 62
     7
370
    15
100
AcDbLine
 10
1453.5717208848
 20
1581.7216037736
 30
0.0
 11
1451.5717208848
 21
1584.3916037736
 31
0.0
  0
LINE
  5
C0
330
1F
100
AcDbEntity
  8
0
  6
Continuous
 62
     7
370
    15
100
AcDbLine
 10
1444.2617208848
 20
1584.3916037736
 30
0.0
 11
1442.2617208848
 21
1581.7216037736
 31
0.0
  0
LINE
  5
C1
330
1F
100
AcDbEntity
  8
0
  6
Continuous
 62
     7
370
    15
100
AcDbLine
 10
1483.5717208848
 20
1581.7216037736
 30
0.0
 11
1481.5717208848
 21
1584.3916037736
 31
0.0
  0
LINE
  5
C2
330
1F
100
AcDbEntity
  8
0
  6
Continuous
 62
     7
370
    15
100
AcDbLine
 10
1474.2617208848
 20
1584.3916037736
 30
0.0
 11
1472.2617208848
 21
1581.7216037736
 31
0.0
  0
LINE
  5
C3
330
1F
100
AcDbEntity
  8
0
  6
Continuous
 62
     7
370
    15
100
AcDbLine
 10
1363.5717208848
 20
1581.7216037736
 30
0.0
 11
1361.5717208848
 21
1584.3916037736
 31
0.0
  0
LINE
  5
C4
330
1F
100
AcDbEntity
  8
0
  6
Continuous
 62
     7
370
    15
100
AcDbLine
 10
1354.2617208848
 20
1584.3916037736
 30
0.0
 11
1352.2617208848
 21
1581.7216037736
 31
0.0
  0
LINE
  5
C5
330
1F
100
AcDbEntity
  8
0
  6
Continuous
 62
     7
370
    15
100
AcDbLine
 10
1393.5717208848
 20
1581.7216037736
 30
0.0
 11
1391.5717208848
 21
1584.3916037736
 31
0.0
  0
LINE
  5
C6
330
1F
100
AcDbEntity
  8
0
  6
Continuous
 62
     7
370
    15
100
AcDbLine
 10
1384.2617208848
 20
1584.3916037736
 30
0.0
 11
1382.2617208848
 21
1581.7216037736
 31
0.0
  0
LINE
  5
C7
330
1F
100
AcDbEntity
  8
0
  6
Continuous
 62
     7
370
    15
100
AcDbLine
 10
1423.5717208848
 20
1581.7216037736
 30
0.0
 11
1421.5717208848
 21
1584.3916037736
 31
0.0
  0
LINE
  5
C8
330
1F
100
AcDbEntity
  8
0
  6
Continuous
 62
     7
370
    15
100
AcDbLine
 10
1414.2617208848
 20
1584.3916037736
 30
0.0
 11
1412.2617208848
 21
1581.7216037736
 31
0.0
  0
LINE
  5
C9
330
1F
100
AcDbEntity
  8
0
  6
Continuous
 62
     7
370
    15
100
AcDbLine
 10
1303.5717208848
 20
1581.7216037736
 30
0.0
 11
1301.5717208848
 21
1584.3916037736
 31
0.0
  0
LINE
  5
CA
330
1F
100
AcDbEntity
  8
0
  6
Continuous
 62
     7
370
    15
100
AcDbLine
 10
1294.2617208848
 20
1584.3916037736
 30
0.0
 11
1292.2617208848
 21
1581.7216037736
 31
0.0
  0
LINE
  5
CB
330
1F
100
AcDbEntity
  8
0
  6
Continuous
 62
     7
370
    15
100
AcDbLine
 10
1333.5717208848
 20
1581.7216037736
 30
0.0
 11
1331.5717208848
 21
1584.3916037736
 31
0.0
  0
LINE
  5
CC
330
1F
100
AcDbEntity
  8
0
  6
Continuous
 62
     7
370
    15
100
AcDbLine
 10
1324.2617208848
 20
1584.3916037736
 30
0.0
 11
1322.2617208848
 21
1581.7216037736
 31
0.0
  0
LINE
  5
CD
330
1F
100
AcDbEntity
  8
0
  6
Continuous
 62
     7
370
    15
100
AcDbLine
 10
1273.5717208848
 20
1581.7216037736
 30
0.0
 11
1271.5717208848
 21
1584.3916037736
 31
0.0
  0
LINE
  5
CE
330
1F
100
AcDbEntity
  8
0
  6
Continuous
 62
     7
370
    15
100
AcDbLine
 10
1264.2617208848
 20
1584.3916037736
 30
0.0
 11
1262.2617208848
 21
1581.7216037736
 31
0.0
  0
LINE
  5
CF
330
1F
100
AcDbEntity
  8
0
  6
Continuous
 62
     7
370
    15
100
AcDbLine
 10
1543.5717208848
 20
1581.7216037736
 30
0.0
 11
1541.5717208848
 21
1584.3916037736
 31
0.0
  0
LINE
  5
D0
330
1F
100
AcDbEntity
  8
0
  6
Continuous
 62
     7
370
    15
100
AcDbLine
 10
1534.2617208848
 20
1584.3916037736
 30
0.0
 11
1532.2617208848
 21
1581.7216037736
 31
0.0
  0
LINE
  5
D1
330
1F
100
AcDbEntity
  8
0
  6
Continuous
 62
     7
370
    15
100
AcDbLine
 10
1467.0717208848
 20
1581.7216037736
 30
0.0
 11
1465.0717208848
 21
1584.3916037736
 31
0.0
  0
LINE
  5
D2
330
1F
100
AcDbEntity
  8
0
  6
Continuous
 62
     7
370
    15
100
AcDbLine
 10
1457.7617208848
 20
1584.3916037736
 30
0.0
 11
1455.7617208848
 21
1581.7216037736
 31
0.0
  0
LINE
  5
D3
330
1F
100
AcDbEntity
  8
0
  6
Continuous
 62
     7
370
    15
100
AcDbLine
 10
1287.0717208848
 20
1581.7216037736
 30
0.0
 11
1285.0717208848
 21
1584.3916037736
 31
0.0
  0
LINE
  5
D4
330
1F
100
AcDbEntity
  8
0
  6
Continuous
 62
     7
370
    15
100
AcDbLine
 10
1277.7617208848
 20
1584.3916037736
 30
0.0
 11
1275.7617208848
 21
1581.7216037736
 31
0.0
  0
LINE
  5
D5
330
1F
100
AcDbEntity
  8
0
  6
Continuous
 62
     7
370
    15
100
AcDbLine
 10
1557.0717208848
 20
1581.7216037736
 30
0.0
 11
1555.0717208848
 21
1584.3916037736
 31
0.0
  0
LINE
  5
D6
330
1F
100
AcDbEntity
  8
0
  6
Continuous
 62
     7
370
    15
100
AcDbLine
 10
1547.7617208848
 20
1584.3916037736
 30
0.0
 11
1545.7617208848
 21
1581.7216037736
 31
0.0
  0
LINE
  5
D7
330
1F
100
AcDbEntity
  8
0
  6
Continuous
 62
     7
370
    15
100
AcDbLine
 10
1827.0717208848
 20
1581.7216037736
 30
0.0
 11
1825.0717208848
 21
1584.3916037736
 31
0.0
  0
LINE
  5
D8
330
1F
100
AcDbEntity
  8
0
  6
Continuous
 62
     7
370
    15
100
AcDbLine
 10
1817.7617208848
 20
1584.3916037736
 30
0.0
 11
1815.7617208848
 21
1581.7216037736
 31
0.0
  0
LINE
  5
D9
330
1F
100
AcDbEntity
  8
0
  6
Continuous
 62
     7
370
    15
100
AcDbLine
 10
1767.0717208848
 20
1581.7216037736
 30
0.0
 11
1765.0717208848
 21
1584.3916037736
 31
0.0
  0
LINE
  5
DA
330
1F
100
AcDbEntity
  8
0
  6
Continuous
 62
     7
370
    15
100
AcDbLine
 10
1757.7617208848
 20
1584.3916037736
 30
0.0
 11
1755.7617208848
 21
1581.7216037736
 31
0.0
  0
LINE
  5
DB
330
1F
100
AcDbEntity
  8
0
  6
Continuous
 62
     7
370
    15
100
AcDbLine
 10
1257.0717208848
 20
1581.7216037736
 30
0.0
 11
1255.0717208848
 21
1584.3916037736
 31
0.0
  0
LINE
  5
DC
330
1F
100
AcDbEntity
  8
0
  6
Continuous
 62
     7
370
    15
100
AcDbLine
 10
1247.7617208848
 20
1584.3916037736
 30
0.0
 11
1245.7617208848
 21
1581.7216037736
 31
0.0
  0
LINE
  5
DD
330
1F
100
AcDbEntity
  8
0
  6
Continuous
 62
     7
370
    15
100
AcDbLine
 10
1797.0717208848
 20
1581.7216037736
 30
0.0
 11
1795.0717208848
 21
1584.3916037736
 31
0.0
  0
LINE
  5
DE
330
1F
100
AcDbEntity
  8
0
  6
Continuous
 62
     7
370
    15
100
AcDbLine
 10
1787.7617208848
 20
1584.3916037736
 30
0.0
 11
1785.7617208848
 21
1581.7216037736
 31
0.0
  0
LINE
  5
DF
330
1F
100
AcDbEntity
  8
0
  6
Continuous
 62
     7
370
    15
100
AcDbLine
 10
1587.0717208848
 20
1581.7216037736
 30
0.0
 11
1585.0717208848
 21
1584.3916037736
 31
0.0
  0
LINE
  5
E0
330
1F
100
AcDbEntity
  8
0
  6
Continuous
 62
     7
370
    15
100
AcDbLine
 10
1577.7617208848
 20
1584.3916037736
 30
0.0
 11
1575.7617208848
 21
1581.7216037736
 31
0.0
  0
LINE
  5
E1
330
1F
100
AcDbEntity
  8
0
  6
Continuous
 62
     7
370
    15
100
AcDbLine
 10
1707.0717208848
 20
1581.7216037736
 30
0.0
 11
1705.0717208848
 21
1584.3916037736
 31
0.0
  0
LINE
  5
E2
330
1F
100
AcDbEntity
  8
0
  6
Continuous
 62
     7
370
    15
100
AcDbLine
 10
1697.7617208848
 20
1584.3916037736
 30
0.0
 11
1695.7617208848
 21
1581.7216037736
 31
0.0
  0
LINE
  5
E3
330
1F
100
AcDbEntity
  8
0
  6
Continuous
 62
     7
370
    15
100
AcDbLine
 10
1647.0717208848
 20
1581.7216037736
 30
0.0
 11
1645.0717208848
 21
1584.3916037736
 31
0.0
  0
LINE
  5
E4
330
1F
100
AcDbEntity
  8
0
  6
Continuous
 62
     7
370
    15
100
AcDbLine
 10
1637.7617208848
 20
1584.3916037736
 30
0.0
 11
1635.7617208848
 21
1581.7216037736
 31
0.0
  0
LINE
  5
E5
330
1F
100
AcDbEntity
  8
0
  6
Continuous
 62
     7
370
    15
100
AcDbLine
 10
1437.0717208848
 20
1581.7216037736
 30
0.0
 11
1435.0717208848
 21
1584.3916037736
 31
0.0
  0
LINE
  5
E6
330
1F
100
AcDbEntity
  8
0
  6
Continuous
 62
     7
370
    15
100
AcDbLine
 10
1427.7617208848
 20
1584.3916037736
 30
0.0
 11
1425.7617208848
 21
1581.7216037736
 31
0.0
  0
LINE
  5
E7
330
1F
100
AcDbEntity
  8
0
  6
Continuous
 62
     7
370
    15
100
AcDbLine
 10
1677.0717208848
 20
1581.7216037736
 30
0.0
 11
1675.0717208848
 21
1584.3916037736
 31
0.0
  0
LINE
  5
E8
330
1F
100
AcDbEntity
  8
0
  6
Continuous
 62
     7
370
    15
100
AcDbLine
 10
1667.7617208848
 20
1584.3916037736
 30
0.0
 11
1665.7617208848
 21
1581.7216037736
 31
0.0
  0
LINE
  5
E9
330
1F
100
AcDbEntity
  8
0
  6
Continuous
 62
     7
370
    15
100
AcDbLine
 10
1527.0717208848
 20
1581.7216037736
 30
0.0
 11
1525.0717208848
 21
1584.3916037736
 31
0.0
  0
LINE
  5
EA
330
1F
100
AcDbEntity
  8
0
  6
Continuous
 62
     7
370
    15
100
AcDbLine
 10
1517.7617208848
 20
1584.3916037736
 30
0.0
 11
1515.7617208848
 21
1581.7216037736
 31
0.0
  0
LINE
  5
EB
330
1F
100
AcDbEntity
  8
0
  6
Continuous
 62
     7
370
    15
100
AcDbLine
 10
1317.0717208848
 20
1581.7216037736
 30
0.0
 11
1315.0717208848
 21
1584.3916037736
 31
0.0
  0
LINE
  5
EC
330
1F
100
AcDbEntity
  8
0
  6
Continuous
 62
     7
370
    15
100
AcDbLine
 10
1307.7617208848
 20
1584.3916037736
 30
0.0
 11
1305.7617208848
 21
1581.7216037736
 31
0.0
  0
LINE
  5
ED
330
1F
100
AcDbEntity
  8
0
  6
Continuous
 62
     7
370
    15
100
AcDbLine
 10
1407.0717208848
 20
1581.7216037736
 30
0.0
 11
1405.0717208848
 21
1584.3916037736
 31
0.0
  0
LINE
  5
EE
330
1F
100
AcDbEntity
  8
0
  6
Continuous
 62
     7
370
    15
100
AcDbLine
 10
1397.7617208848
 20
1584.3916037736
 30
0.0
 11
1395.7617208848
 21
1581.7216037736
 31
0.0
  0
LINE
  5
EF
330
1F
100
AcDbEntity
  8
0
  6
Continuous
 62
     7
370
    15
100
AcDbLine
 10
1617.0717208848
 20
1581.7216037736
 30
0.0
 11
1615.0717208848
 21
1584.3916037736
 31
0.0
  0
LINE
  5
F0
330
1F
100
AcDbEntity
  8
0
  6
Continuous
 62
     7
370
    15
100
AcDbLine
 10
1607.7617208848
 20
1584.3916037736
 30
0.0
 11
1605.7617208848
 21
1581.7216037736
 31
0.0
  0
LINE
  5
F1
330
1F
100
AcDbEntity
  8
0
  6
Continuous
 62
     7
370
    15
100
AcDbLine
 10
1737.0717208848
 20
1581.7216037736
 30
0.0
 11
1735.0717208848
 21
1584.3916037736
 31
0.0
  0
LINE
  5
F2
330
1F
100
AcDbEntity
  8
0
  6
Continuous
 62
     7
370
    15
100
AcDbLine
 10
1727.7617208848
 20
1584.3916037736
 30
0.0
 11
1725.7617208848
 21
1581.7216037736
 31
0.0
  0
LINE
  5
F3
330
1F
100
AcDbEntity
  8
0
  6
Continuous
 62
     7
370
    15
100
AcDbLine
 10
1497.0717208848
 20
1581.7216037736
 30
0.0
 11
1495.0717208848
 21
1584.3916037736
 31
0.0
  0
LINE
  5
F4
330
1F
100
AcDbEntity
  8
0
  6
Continuous
 62
     7
370
    15
100
AcDbLine
 10
1487.7617208848
 20
1584.3916037736
 30
0.0
 11
1485.7617208848
 21
1581.7216037736
 31
0.0
  0
LINE
  5
F5
330
1F
100
AcDbEntity
  8
0
  6
Continuous
 62
     7
370
    15
100
AcDbLine
 10
1377.0717208848
 20
1581.7216037736
 30
0.0
 11
1375.0717208848
 21
1584.3916037736
 31
0.0
  0
LINE
  5
F6
330
1F
100
AcDbEntity
  8
0
  6
Continuous
 62
     7
370
    15
100
AcDbLine
 10
1367.7617208848
 20
1584.3916037736
 30
0.0
 11
1365.7617208848
 21
1581.7216037736
 31
0.0
  0
LINE
  5
F7
330
1F
100
AcDbEntity
  8
0
  6
Continuous
 62
     7
370
    15
100
AcDbLine
 10
1347.0717208848
 20
1581.7216037736
 30
0.0
 11
1345.0717208848
 21
1584.3916037736
 31
0.0
  0
LINE
  5
F8
330
1F
100
AcDbEntity
  8
0
  6
Continuous
 62
     7
370
    15
100
AcDbLine
 10
1337.7617208848
 20
1584.3916037736
 30
0.0
 11
1335.7617208848
 21
1581.7216037736
 31
0.0
  0
LINE
  5
F9
330
1F
100
AcDbEntity
  8
0
  6
Continuous
 62
     7
370
    15
100
AcDbLine
 10
1240.9167208848
 20
1511.7216037736
 30
0.0
 11
1237.9167208848
 21
1511.7216037736
 31
0.0
  0
LINE
  5
FA
330
1F
100
AcDbEntity
  8
0
  6
Continuous
 62
     7
370
    15
100
AcDbLine
 10
1834.9167208848
 20
1511.7216037736
 30
0.0
 11
1837.9167208848
 21
1511.7216037736
 31
0.0
  0
LINE
  5
FB
330
1F
100
AcDbEntity
  8
0
  6
Continuous
 62
     7
370
    15
100
AcDbLine
 10
1834.9167208848
 20
1559.7216037736
 30
0.0
 11
1834.9167208848
 21
1511.7216037736
 31
0.0
  0
LINE
  5
FC
330
1F
100
AcDbEntity
  8
0
  6
Continuous
 62
     7
370
    15
100
AcDbLine
 10
1240.9167208848
 20
1559.7216037736
 30
0.0
 11
1240.9167208848
 21
1511.7216037736
 31
0.0
  0
LINE
  5
FD
330
1F
100
AcDbEntity
  8
0
  6
Continuous
 62
     7
370
    15
100
AcDbLine
 10
1240.9167208848
 20
1559.7216037736
 30
0.0
 11
1834.9167208848
 21
1559.7216037736
 31
0.0
  0
LINE
  5
FE
330
1F
100
AcDbEntity
  8
0
  6
Continuous
 62
     7
370
    15
100
AcDbLine
 10
1237.9167208848
 20
1581.7216037736
 30
0.0
 11
1237.9167208848
 21
1511.7216037736
 31
0.0
  0
LINE
  5
FF
330
1F
100
AcDbEntity
  8
0
  6
Continuous
 62
     7
370
    15
100
AcDbLine
 10
1237.9167208848
 20
1581.7216037736
 30
0.0
 11
1837.9167208848
 21
1581.7216037736
 31
0.0
  0
LINE
  5
100
330
1F
100
AcDbEntity
  8
0
  6
Continuous
 62
     7
370
    15
100
AcDbLine
 10
1837.9167208848
 20
1581.7216037736
 30
0.0
 11
1837.9167208848
 21
1511.7216037736
 31
0.0
  0
LINE
  5
101
330
1F
100
AcDbEntity
  8
0
  6
Continuous
 62
     7
370
    15
100
AcDbLine
 10
1781.5717208848
 20
1584.3916037736
 30
0.0
 11
1774.2617208848
 21
1584.3916037736
 31
0.0
  0
LINE
  5
102
330
1F
100
AcDbEntity
  8
0
  6
Continuous
 62
     7
370
    15
100
AcDbLine
 10
1751.5717208848
 20
1584.3916037736
 30
0.0
 11
1744.2617208848
 21
1584.3916037736
 31
0.0
  0
LINE
  5
103
330
1F
100
AcDbEntity
  8
0
  6
Continuous
 62
     7
370
    15
100
AcDbLine
 10
1511.5717208848
 20
1584.3916037736
 30
0.0
 11
1504.2617208848
 21
1584.3916037736
 31
0.0
  0
LINE
  5
104
330
1F
100
AcDbEntity
  8
0
  6
Continuous
 62
     7
370
    15
100
AcDbLine
 10
1571.5717208848
 20
1584.3916037736
 30
0.0
 11
1564.2617208848
 21
1584.3916037736
 31
0.0
  0
LINE
  5
105
330
1F
100
AcDbEntity
  8
0
  6
Continuous
 62
     7
370
    15
100
AcDbLine
 10
1601.5717208848
 20
1584.3916037736
 30
0.0
 11
1594.2617208848
 21
1584.3916037736
 31
0.0
  0
LINE
  5
106
330
1F
100
AcDbEntity
  8
0
  6
Continuous
 62
     7
370
    15
100
AcDbLine
 10
1811.5717208848
 20
1584.3916037736
 30
0.0
 11
1804.2617208848
 21
1584.3916037736
 31
0.0
  0
LINE
  5
107
330
1F
100
AcDbEntity
  8
0
  6
Continuous
 62
     7
370
    15
100
AcDbLine
 10
1631.5717208848
 20
1584.3916037736
 30
0.0
 11
1624.2617208848
 21
1584.3916037736
 31
0.0
  0
LINE
  5
108
330
1F
100
AcDbEntity
  8
0
  6
Continuous
 62
     7
370
    15
100
AcDbLine
 10
1721.5717208848
 20
1584.3916037736
 30
0.0
 11
1714.2617208848
 21
1584.3916037736
 31
0.0
  0
LINE
  5
109
330
1F
100
AcDbEntity
  8
0
  6
Continuous
 62
     7
370
    15
100
AcDbLine
 10
1691.5717208848
 20
1584.3916037736
 30
0.0
 11
1684.2617208848
 21
1584.3916037736
 31
0.0
  0
LINE
  5
10A
330
1F
100
AcDbEntity
  8
0
  6
Continuous
 62
     7
370
    15
100
AcDbLine
 10
1661.5717208848
 20
1584.3916037736
 30
0.0
 11
1654.2617208848
 21
1584.3916037736
 31
0.0
  0
LINE
  5
10B
330
1F
100
AcDbEntity
  8
0
  6
Continuous
 62
     7
370
    15
100
AcDbLine
 10
1451.5717208848
 20
1584.3916037736
 30
0.0
 11
1444.2617208848
 21
1584.3916037736
 31
0.0
  0
LINE
  5
10C
330
1F
100
AcDbEntity
  8
0
  6
Continuous
 62
     7
370
    15
100
AcDbLine
 10
1481.5717208848
 20
1584.3916037736
 30
0.0
 11
1474.2617208848
 21
1584.3916037736
 31
0.0
  0
LINE
  5
10D
330
1F
100
AcDbEntity
  8
0
  6
Continuous
 62
     7
370
    15
100
AcDbLine
 10
1361.5717208848
 20
1584.3916037736
 30
0.0
 11
1354.2617208848
 21
1584.3916037736
 31
0.0
  0
LINE
  5
10E
330
1F
100
AcDbEntity
  8
0
  6
Continuous
 62
     7
370
    15
100
AcDbLine
 10
1391.5717208848
 20
1584.3916037736
 30
0.0
 11
1384.2617208848
 21
1584.3916037736
 31
0.0
  0
LINE
  5
10F
330
1F
100
AcDbEntity
  8
0
  6
Continuous
 62
     7
370
    15
100
AcDbLine
 10
1421.5717208848
 20
1584.3916037736
 30
0.0
 11
1414.2617208848
 21
1584.3916037736
 31
0.0
  0
LINE
  5
110
330
1F
100
AcDbEntity
  8
0
  6
Continuous
 62
     7
370
    15
100
AcDbLine
 10
1301.5717208848
 20
1584.3916037736
 30
0.0
 11
1294.2617208848
 21
1584.3916037736
 31
0.0
  0
LINE
  5
111
330
1F
100
AcDbEntity
  8
0
  6
Continuous
 62
     7
370
    15
100
AcDbLine
 10
1331.5717208848
 20
1584.3916037736
 30
0.0
 11
1324.2617208848
 21
1584.3916037736
 31
0.0
  0
LINE
  5
112
330
1F
100
AcDbEntity
  8
0
  6
Continuous
 62
     7
370
    15
100
AcDbLine
 10
1271.5717208848
 20
1584.3916037736
 30
0.0
 11
1264.2617208848
 21
1584.3916037736
 31
0.0
  0
LINE
  5
113
330
1F
100
AcDbEntity
  8
0
  6
Continuous
 62
     7
370
    15
100
AcDbLine
 10
1541.5717208848
 20
1584.3916037736
 30
0.0
 11
1534.2617208848
 21
1584.3916037736
 31
0.0
  0
LINE
  5
114
330
1F
100
AcDbEntity
  8
0
  6
Continuous
 62
     7
370
    15
100
AcDbLine
 10
1240.9167208848
 20
1511.7216037736
 30
0.0
 11
1834.9167208848
 21
1511.7216037736
 31
0.0
  0
LINE
  5
115
330
1F
100
AcDbEntity
  8
0
  6
Continuous
 62
     7
370
    15
100
AcDbLine
 10
1461.4167208848
 20
1584.3916037736
 30
0.0
 11
1465.0717208848
 21
1584.3916037736
 31
0.0
  0
LINE
  5
116
330
1F
100
AcDbEntity
  8
0
  6
Continuous
 62
     7
370
    15
100
AcDbLine
 10
1457.7617208848
 20
1584.3916037736
 30
0.0
 11
1461.4167208848
 21
1584.3916037736
 31
0.0
  0
LINE
  5
117
330
1F
100
AcDbEntity
  8
0
  6
Continuous
 62
     7
370
    15
100
AcDbLine
 10
1281.4167208848
 20
1584.3916037736
 30
0.0
 11
1285.0717208848
 21
1584.3916037736
 31
0.0
  0
LINE
  5
118
330
1F
100
AcDbEntity
  8
0
  6
Continuous
 62
     7
370
    15
100
AcDbLine
 10
1277.7617208848
 20
1584.3916037736
 30
0.0
 11
1281.4167208848
 21
1584.3916037736
 31
0.0
  0
LINE
  5
119
330
1F
100
AcDbEntity
  8
0
  6
Continuous
 62
     7
370
    15
100
AcDbLine
 10
1551.4167208848
 20
1584.3916037736
 30
0.0
 11
1555.0717208848
 21
1584.3916037736
 31
0.0
  0
LINE
  5
11A
330
1F
100
AcDbEntity
  8
0
  6
Continuous
 62
     7
370
    15
100
AcDbLine
 10
1547.7617208848
 20
1584.3916037736
 30
0.0
 11
1551.4167208848
 21
1584.3916037736
 31
0.0
  0
LINE
  5
11B
330
1F
100
AcDbEntity
  8
0
  6
Continuous
 62
     7
370
    15
100
AcDbLine
 10
1821.4167208848
 20
1584.3916037736
 30
0.0
 11
1825.0717208848
 21
1584.3916037736
 31
0.0
  0
LINE
  5
11C
330
1F
100
AcDbEntity
  8
0
  6
Continuous
 62
     7
370
    15
100
AcDbLine
 10
1817.7617208848
 20
1584.3916037736
 30
0.0
 11
1821.4167208848
 21
1584.3916037736
 31
0.0
  0
LINE
  5
11D
330
1F
100
AcDbEntity
  8
0
  6
Continuous
 62
     7
370
    15
100
AcDbLine
 10
1761.4167208848
 20
1584.3916037736
 30
0.0
 11
1765.0717208848
 21
1584.3916037736
 31
0.0
  0
LINE
  5
11E
330
1F
100
AcDbEntity
  8
0
  6
Continuous
 62
     7
370
    15
100
AcDbLine
 10
1757.7617208848
 20
1584.3916037736
 30
0.0
 11
1761.4167208848
 21
1584.3916037736
 31
0.0
  0
LINE
  5
11F
330
1F
100
AcDbEntity
  8
0
  6
Continuous
 62
     7
370
    15
100
AcDbLine
 10
1251.4167208848
 20
1584.3916037736
 30
0.0
 11
1255.0717208848
 21
1584.3916037736
 31
0.0
  0
LINE
  5
120
330
1F
100
AcDbEntity
  8
0
  6
Continuous
 62
     7
370
    15
100
AcDbLine
 10
1247.7617208848
 20
1584.3916037736
 30
0.0
 11
1251.4167208848
 21
1584.3916037736
 31
0.0
  0
LINE
  5
121
330
1F
100
AcDbEntity
  8
0
  6
Continuous
 62
     7
370
    15
100
AcDbLine
 10
1791.4167208848
 20
1584.3916037736
 30
0.0
 11
1795.0717208848
 21
1584.3916037736
 31
0.0
  0
LINE
  5
122
330
1F
100
AcDbEntity
  8
0
  6
Continuous
 62
     7
370
    15
100
AcDbLine
 10
1787.7617208848
 20
1584.3916037736
 30
0.0
 11
1791.4167208848
 21
1584.3916037736
 31
0.0
  0
LINE
  5
123
330
1F
100
AcDbEntity
  8
0
  6
Continuous
 62
     7
370
    15
100
AcDbLine
 10
1581.4167208848
 20
1584.3916037736
 30
0.0
 11
1585.0717208848
 21
1584.3916037736
 31
0.0
  0
LINE
  5
124
330
1F
100
AcDbEntity
  8
0
  6
Continuous
 62
     7
370
    15
100
AcDbLine
 10
1577.7617208848
 20
1584.3916037736
 30
0.0
 11
1581.4167208848
 21
1584.3916037736
 31
0.0
  0
LINE
  5
125
330
1F
100
AcDbEntity
  8
0
  6
Continuous
 62
     7
370
    15
100
AcDbLine
 10
1701.4167208848
 20
1584.3916037736
 30
0.0
 11
1705.0717208848
 21
1584.3916037736
 31
0.0
  0
LINE
  5
126
330
1F
100
AcDbEntity
  8
0
  6
Continuous
 62
     7
370
    15
100
AcDbLine
 10
1697.7617208848
 20
1584.3916037736
 30
0.0
 11
1701.4167208848
 21
1584.3916037736
 31
0.0
  0
LINE
  5
127
330
1F
100
AcDbEntity
  8
0
  6
Continuous
 62
     7
370
    15
100
AcDbLine
 10
1641.4167208848
 20
1584.3916037736
 30
0.0
 11
1645.0717208848
 21
1584.3916037736
 31
0.0
  0
LINE
  5
128
330
1F
100
AcDbEntity
  8
0
  6
Continuous
 62
     7
370
    15
100
AcDbLine
 10
1637.7617208848
 20
1584.3916037736
 30
0.0
 11
1641.4167208848
 21
1584.3916037736
 31
0.0
  0
LINE
  5
129
330
1F
100
AcDbEntity
  8
0
  6
Continuous
 62
     7
370
    15
100
AcDbLine
 10
1431.4167208848
 20
1584.3916037736
 30
0.0
 11
1435.0717208848
 21
1584.3916037736
 31
0.0
  0
LINE
  5
12A
330
1F
100
AcDbEntity
  8
0
  6
Continuous
 62
     7
370
    15
100
AcDbLine
 10
1427.7617208848
 20
1584.3916037736
 30
0.0
 11
1431.4167208848
 21
1584.3916037736
 31
0.0
  0
LINE
  5
12B
330
1F
100
AcDbEntity
  8
0
  6
Continuous
 62
     7
370
    15
100
AcDbLine
 10
1671.4167208848
 20
1584.3916037736
 30
0.0
 11
1675.0717208848
 21
1584.3916037736
 31
0.0
  0
LINE
  5
12C
330
1F
100
AcDbEntity
  8
0
  6
Continuous
 62
     7
370
    15
100
AcDbLine
 10
1667.7617208848
 20
1584.3916037736
 30
0.0
 11
1671.4167208848
 21
1584.3916037736
 31
0.0
  0
LINE
  5
12D
330
1F
100
AcDbEntity
  8
0
  6
Continuous
 62
     7
370
    15
100
AcDbLine
 10
1521.4167208848
 20
1584.3916037736
 30
0.0
 11
1525.0717208848
 21
1584.3916037736
 31
0.0
  0
LINE
  5
12E
330
1F
100
AcDbEntity
  8
0
  6
Continuous
 62
     7
370
    15
100
AcDbLine
 10
1517.7617208848
 20
1584.3916037736
 30
0.0
 11
1521.4167208848
 21
1584.3916037736
 31
0.0
  0
LINE
  5
12F
330
1F
100
AcDbEntity
  8
0
  6
Continuous
 62
     7
370
    15
100
AcDbLine
 10
1311.4167208848
 20
1584.3916037736
 30
0.0
 11
1315.0717208848
 21
1584.3916037736
 31
0.0
  0
LINE
  5
130
330
1F
100
AcDbEntity
  8
0
  6
Continuous
 62
     7
370
    15
100
AcDbLine
 10
1307.7617208848
 20
1584.3916037736
 30
0.0
 11
1311.4167208848
 21
1584.3916037736
 31
0.0
  0
LINE
  5
131
330
1F
100
AcDbEntity
  8
0
  6
Continuous
 62
     7
370
    15
100
AcDbLine
 10
1401.4167208848
 20
1584.3916037736
 30
0.0
 11
1405.0717208848
 21
1584.3916037736
 31
0.0
  0
LINE
  5
132
330
1F
100
AcDbEntity
  8
0
  6
Continuous
 62
     7
370
    15
100
AcDbLine
 10
1397.7617208848
 20
1584.3916037736
 30
0.0
 11
1401.4167208848
 21
1584.3916037736
 31
0.0
  0
LINE
  5
133
330
1F
100
AcDbEntity
  8
0
  6
Continuous
 62
     7
370
    15
100
AcDbLine
 10
1611.4167208848
 20
1584.3916037736
 30
0.0
 11
1615.0717208848
 21
1584.3916037736
 31
0.0
  0
LINE
  5
134
330
1F
100
AcDbEntity
  8
0
  6
Continuous
 62
     7
370
    15
100
AcDbLine
 10
1607.7617208848
 20
1584.3916037736
 30
0.0
 11
1611.4167208848
 21
1584.3916037736
 31
0.0
  0
LINE
  5
135
330
1F
100
AcDbEntity
  8
0
  6
Continuous
 62
     7
370
    15
100
AcDbLine
 10
1731.4167208848
 20
1584.3916037736
 30
0.0
 11
1735.0717208848
 21
1584.3916037736
 31
0.0
  0
LINE
  5
136
330
1F
100
AcDbEntity
  8
0
  6
Continuous
 62
     7
370
    15
100
AcDbLine
 10
1727.7617208848
 20
1584.3916037736
 30
0.0
 11
1731.4167208848
 21
1584.3916037736
 31
0.0
  0
LINE
  5
137
330
1F
100
AcDbEntity
  8
0
  6
Continuous
 62
     7
370
    15
100
AcDbLine
 10
1491.4167208848
 20
1584.3916037736
 30
0.0
 11
1495.0717208848
 21
1584.3916037736
 31
0.0
  0
LINE
  5
138
330
1F
100
AcDbEntity
  8
0
  6
Continuous
 62
     7
370
    15
100
AcDbLine
 10
1487.7617208848
 20
1584.3916037736
 30
0.0
 11
1491.4167208848
 21
1584.3916037736
 31
0.0
  0
LINE
  5
139
330
1F
100
AcDbEntity
  8
0
  6
Continuous
 62
     7
370
    15
100
AcDbLine
 10
1371.4167208848
 20
1584.3916037736
 30
0.0
 11
1375.0717208848
 21
1584.3916037736
 31
0.0
  0
LINE
  5
13A
330
1F
100
AcDbEntity
  8
0
  6
Continuous
 62
     7
370
    15
100
AcDbLine
 10
1367.7617208848
 20
1584.3916037736
 30
0.0
 11
1371.4167208848
 21
1584.3916037736
 31
0.0
  0
LINE
  5
13B
330
1F
100
AcDbEntity
  8
0
  6
Continuous
 62
     7
370
    15
100
AcDbLine
 10
1341.4167208848
 20
1584.3916037736
 30
0.0
 11
1345.0717208848
 21
1584.3916037736
 31
0.0
  0
LINE
  5
13C
330
1F
100
AcDbEntity
  8
0
  6
Continuous
 62
     7
370
    15
100
AcDbLine
 10
1337.7617208848
 20
1584.3916037736
 30
0.0
 11
1341.4167208848
 21
1584.3916037736
 31
0.0
  0
CIRCLE
  5
13D
330
1F
100
AcDbEntity
  8
0
  6
Continuous
 62
     7
370
    15
100
AcDbCircle
 10
1267.9167208848
 20
831.0943146226
 30
0.0
 40
3.654999999999973
  0
CIRCLE
  5
13E
330
1F
100
AcDbEntity
  8
0
  6
Continuous
 62
     7
370
    15
100
AcDbCircle
 10
1267.9167208848
 20
831.0943146226
 30
0.0
 40
3.500000000000114
  0
CIRCLE
  5
13F
330
1F
100
AcDbEntity
  8
0
  6
Continuous
 62
     7
370
    15
100
AcDbCircle
 10
1267.9167208848
 20
831.0943146226
 30
0.0
 40
5.654999999999973
  0
CIRCLE
  5
140
330
1F
100
AcDbEntity
  8
0
  6
Continuous
 62
     7
370
    15
100
AcDbCircle
 10
1297.9167208848
 20
831.0943146226
 30
0.0
 40
3.654999999999973
  0
CIRCLE
  5
141
330
1F
100
AcDbEntity
  8
0
  6
Continuous
 62
     7
370
    15
100
AcDbCircle
 10
1297.9167208848
 20
831.0943146226
 30
0.0
 40
3.500000000000114
  0
CIRCLE
  5
142
330
1F
100
AcDbEntity
  8
0
  6
Continuous
 62
     7
370
    15
100
AcDbCircle
 10
1327.9167208848
 20
831.0943146226
 30
0.0
 40
3.654999999999973
  0
CIRCLE
  5
143
330
1F
100
AcDbEntity
  8
0
  6
Continuous
 62
     7
370
    15
100
AcDbCircle
 10
1327.9167208848
 20
831.0943146226
 30
0.0
 40
3.500000000000114
  0
CIRCLE
  5
144
330
1F
100
AcDbEntity
  8
0
  6
Continuous
 62
     7
370
    15
100
AcDbCircle
 10
1297.9167208848
 20
831.0943146226
 30
0.0
 40
5.654999999999973
  0
CIRCLE
  5
145
330
1F
100
AcDbEntity
  8
0
  6
Continuous
 62
     7
370
    15
100
AcDbCircle
 10
1327.9167208848
 20
831.0943146226
 30
0.0
 40
5.654999999999973
  0
CIRCLE
  5
146
330
1F
100
AcDbEntity
  8
0
  6
Continuous
 62
     7
370
    15
100
AcDbCircle
 10
1357.9167208848
 20
831.0943146226
 30
0.0
 40
3.654999999999973
  0
CIRCLE
  5
147
330
1F
100
AcDbEntity
  8
0
  6
Continuous
 62
     7
370
    15
100
AcDbCircle
 10
1357.9167208848
 20
831.0943146226
 30
0.0
 40
3.500000000000114
  0
CIRCLE
  5
148
330
1F
100
AcDbEntity
  8
0
  6
Continuous
 62
     7
370
    15
100
AcDbCircle
 10
1357.9167208848
 20
831.0943146226
 30
0.0
 40
5.654999999999973
  0
CIRCLE
  5
149
330
1F
100
AcDbEntity
  8
0
  6
Continuous
 62
     7
370
    15
100
AcDbCircle
 10
1387.9167208848
 20
831.0943146226
 30
0.0
 40
5.654999999999973
  0
CIRCLE
  5
14A
330
1F
100
AcDbEntity
  8
0
  6
Continuous
 62
     7
370
    15
100
AcDbCircle
 10
1387.9167208848
 20
831.0943146226
 30
0.0
 40
3.654999999999973
  0
CIRCLE
  5
14B
330
1F
100
AcDbEntity
  8
0
  6
Continuous
 62
     7
370
    15
100
AcDbCircle
 10
1387.9167208848
 20
831.0943146226
 30
0.0
 40
3.500000000000114
  0
CIRCLE
  5
14C
330
1F
100
AcDbEntity
  8
0
  6
Continuous
 62
     7
370
    15
100
AcDbCircle
 10
1417.9167208848
 20
831.0943146226
 30
0.0
 40
3.654999999999973
  0
CIRCLE
  5
14D
330
1F
100
AcDbEntity
  8
0
  6
Continuous
 62
     7
370
    15
100
AcDbCircle
 10
1417.9167208848
 20
831.0943146226
 30
0.0
 40
3.500000000000114
  0
CIRCLE
  5
14E
330
1F
100
AcDbEntity
  8
0
  6
Continuous
 62
     7
370
    15
100
AcDbCircle
 10
1417.9167208848
 20
831.0943146226
 30
0.0
 40
5.654999999999973
  0
CIRCLE
  5
14F
330
1F
100
AcDbEntity
  8
0
  6
Continuous
 62
     7
370
    15
100
AcDbCircle
 10
1447.9167208848
 20
831.0943146226
 30
0.0
 40
5.654999999999973
  0
CIRCLE
  5
150
330
1F
100
AcDbEntity
  8
0
  6
Continuous
 62
     7
370
    15
100
AcDbCircle
 10
1447.9167208848
 20
831.0943146226
 30
0.0
 40
3.654999999999973
  0
CIRCLE
  5
151
330
1F
100
AcDbEntity
  8
0
  6
Continuous
 62
     7
370
    15
100
AcDbCircle
 10
1447.9167208848
 20
831.0943146226
 30
0.0
 40
3.500000000000114
  0
CIRCLE
  5
152
330
1F
100
AcDbEntity
  8
0
  6
Continuous
 62
     7
370
    15
100
AcDbCircle
 10
1477.9167208848
 20
831.0943146226
 30
0.0
 40
3.654999999999973
  0
CIRCLE
  5
153
330
1F
100
AcDbEntity
  8
0
  6
Continuous
 62
     7
370
    15
100
AcDbCircle
 10
1477.9167208848
 20
831.0943146226
 30
0.0
 40
3.500000000000114
  0
CIRCLE
  5
154
330
1F
100
AcDbEntity
  8
0
  6
Continuous
 62
     7
370
    15
100
AcDbCircle
 10
1477.9167208848
 20
831.0943146226
 30
0.0
 40
5.654999999999973
  0
CIRCLE
  5
155
330
1F
100
AcDbEntity
  8
0
  6
Continuous
 62
     7
370
    15
100
AcDbCircle
 10
1507.9167208848
 20
831.0943146226
 30
0.0
 40
3.654999999999973
  0
CIRCLE
  5
156
330
1F
100
AcDbEntity
  8
0
  6
Continuous
 62
     7
370
    15
100
AcDbCircle
 10
1507.9167208848
 20
831.0943146226
 30
0.0
 40
3.500000000000114
  0
CIRCLE
  5
157
330
1F
100
AcDbEntity
  8
0
  6
Continuous
 62
     7
370
    15
100
AcDbCircle
 10
1507.9167208848
 20
831.0943146226
 30
0.0
 40
5.654999999999973
  0
CIRCLE
  5
158
330
1F
100
AcDbEntity
  8
0
  6
Continuous
 62
     7
370
    15
100
AcDbCircle
 10
1567.9167208848
 20
831.0943146226
 30
0.0
 40
5.654999999999973
  0
CIRCLE
  5
159
330
1F
100
AcDbEntity
  8
0
  6
Continuous
 62
     7
370
    15
100
AcDbCircle
 10
1567.9167208848
 20
831.0943146226
 30
0.0
 40
3.654999999999973
  0
CIRCLE
  5
15A
330
1F
100
AcDbEntity
  8
0
  6
Continuous
 62
     7
370
    15
100
AcDbCircle
 10
1567.9167208848
 20
831.0943146226
 30
0.0
 40
3.500000000000114
  0
CIRCLE
  5
15B
330
1F
100
AcDbEntity
  8
0
  6
Continuous
 62
     7
370
    15
100
AcDbCircle
 10
1597.9167208848
 20
831.0943146226
 30
0.0
 40
5.654999999999973
  0
CIRCLE
  5
15C
330
1F
100
AcDbEntity
  8
0
  6
Continuous
 62
     7
370
    15
100
AcDbCircle
 10
1597.9167208848
 20
831.0943146226
 30
0.0
 40
3.654999999999973
  0
CIRCLE
  5
15D
330
1F
100
AcDbEntity
  8
0
  6
Continuous
 62
     7
370
    15
100
AcDbCircle
 10
1597.9167208848
 20
831.0943146226
 30
0.0
 40
3.500000000000114
  0
CIRCLE
  5
15E
330
1F
100
AcDbEntity
  8
0
  6
Continuous
 62
     7
370
    15
100
AcDbCircle
 10
1627.9167208848
 20
831.0943146226
 30
0.0
 40
5.654999999999973
  0
CIRCLE
  5
15F
330
1F
100
AcDbEntity
  8
0
  6
Continuous
 62
     7
370
    15
100
AcDbCircle
 10
1627.9167208848
 20
831.0943146226
 30
0.0
 40
3.654999999999973
  0
CIRCLE
  5
160
330
1F
100
AcDbEntity
  8
0
  6
Continuous
 62
     7
370
    15
100
AcDbCircle
 10
1627.9167208848
 20
831.0943146226
 30
0.0
 40
3.500000000000114
  0
CIRCLE
  5
161
330
1F
100
AcDbEntity
  8
0
  6
Continuous
 62
     7
370
    15
100
AcDbCircle
 10
1657.9167208848
 20
831.0943146226
 30
0.0
 40
5.654999999999973
  0
CIRCLE
  5
162
330
1F
100
AcDbEntity
  8
0
  6
Continuous
 62
     7
370
    15
100
AcDbCircle
 10
1657.9167208848
 20
831.0943146226
 30
0.0
 40
3.654999999999973
  0
CIRCLE
  5
163
330
1F
100
AcDbEntity
  8
0
  6
Continuous
 62
     7
370
    15
100
AcDbCircle
 10
1657.9167208848
 20
831.0943146226
 30
0.0
 40
3.500000000000114
  0
CIRCLE
  5
164
330
1F
100
AcDbEntity
  8
0
  6
Continuous
 62
     7
370
    15
100
AcDbCircle
 10
1687.9167208848
 20
831.0943146226
 30
0.0
 40
5.654999999999973
  0
CIRCLE
  5
165
330
1F
100
AcDbEntity
  8
0
  6
Continuous
 62
     7
370
    15
100
AcDbCircle
 10
1687.9167208848
 20
831.0943146226
 30
0.0
 40
3.654999999999973
  0
CIRCLE
  5
166
330
1F
100
AcDbEntity
  8
0
  6
Continuous
 62
     7
370
    15
100
AcDbCircle
 10
1521.4167208848
 20
841.0943146226
 30
0.0
 40
5.655000000000086
  0
CIRCLE
  5
167
330
1F
100
AcDbEntity
  8
0
  6
Continuous
 62
     7
370
    15
100
AcDbCircle
 10
1521.4167208848
 20
841.0943146226
 30
0.0
 40
3.654999999999859
  0
CIRCLE
  5
168
330
1F
100
AcDbEntity
  8
0
  6
Continuous
 62
     7
370
    15
100
AcDbCircle
 10
1521.4167208848
 20
841.0943146226
 30
0.0
 40
3.499999999999886
  0
CIRCLE
  5
169
330
1F
100
AcDbEntity
  8
0
  6
Continuous
 62
     7
370
    15
100
AcDbCircle
 10
1491.4167208848
 20
841.0943146226
 30
0.0
 40
5.655000000000086
  0
CIRCLE
  5
16A
330
1F
100
AcDbEntity
  8
0
  6
Continuous
 62
     7
370
    15
100
AcDbCircle
 10
1491.4167208848
 20
841.0943146226
 30
0.0
 40
3.654999999999859
  0
CIRCLE
  5
16B
330
1F
100
AcDbEntity
  8
0
  6
Continuous
 62
     7
370
    15
100
AcDbCircle
 10
1491.4167208848
 20
841.0943146226
 30
0.0
 40
3.499999999999886
  0
CIRCLE
  5
16C
330
1F
100
AcDbEntity
  8
0
  6
Continuous
 62
     7
370
    15
100
AcDbCircle
 10
1461.4167208848
 20
841.0943146226
 30
0.0
 40
5.655000000000086
  0
CIRCLE
  5
16D
330
1F
100
AcDbEntity
  8
0
  6
Continuous
 62
     7
370
    15
100
AcDbCircle
 10
1461.4167208848
 20
841.0943146226
 30
0.0
 40
3.654999999999859
  0
CIRCLE
  5
16E
330
1F
100
AcDbEntity
  8
0
  6
Continuous
 62
     7
370
    15
100
AcDbCircle
 10
1461.4167208848
 20
841.0943146226
 30
0.0
 40
3.499999999999886
  0
CIRCLE
  5
16F
330
1F
100
AcDbEntity
  8
0
  6
Continuous
 62
     7
370
    15
100
AcDbCircle
 10
1431.4167208848
 20
841.0943146226
 30
0.0
 40
5.655000000000086
  0
CIRCLE
  5
170
330
1F
100
AcDbEntity
  8
0
  6
Continuous
 62
     7
370
    15
100
AcDbCircle
 10
1431.4167208848
 20
841.0943146226
 30
0.0
 40
3.654999999999859
  0
CIRCLE
  5
171
330
1F
100
AcDbEntity
  8
0
  6
Continuous
 62
     7
370
    15
100
AcDbCircle
 10
1431.4167208848
 20
841.0943146226
 30
0.0
 40
3.499999999999886
  0
CIRCLE
  5
172
330
1F
100
AcDbEntity
  8
0
  6
Continuous
 62
     7
370
    15
100
AcDbCircle
 10
1401.4167208848
 20
841.0943146226
 30
0.0
 40
5.655000000000086
  0
CIRCLE
  5
173
330
1F
100
AcDbEntity
  8
0
  6
Continuous
 62
     7
370
    15
100
AcDbCircle
 10
1401.4167208848
 20
841.0943146226
 30
0.0
 40
3.654999999999859
  0
CIRCLE
  5
174
330
1F
100
AcDbEntity
  8
0
  6
Continuous
 62
     7
370
    15
100
AcDbCircle
 10
1401.4167208848
 20
841.0943146226
 30
0.0
 40
3.499999999999886
  0
CIRCLE
  5
175
330
1F
100
AcDbEntity
  8
0
  6
Continuous
 62
     7
370
    15
100
AcDbCircle
 10
1371.4167208848
 20
841.0943146226
 30
0.0
 40
5.655000000000086
  0
CIRCLE
  5
176
330
1F
100
AcDbEntity
  8
0
  6
Continuous
 62
     7
370
    15
100
AcDbCircle
 10
1371.4167208848
 20
841.0943146226
 30
0.0
 40
3.654999999999859
  0
CIRCLE
  5
177
330
1F
100
AcDbEntity
  8
0
  6
Continuous
 62
     7
370
    15
100
AcDbCircle
 10
1371.4167208848
 20
841.0943146226
 30
0.0
 40
3.499999999999886
  0
CIRCLE
  5
178
330
1F
100
AcDbEntity
  8
0
  6
Continuous
 62
     7
370
    15
100
AcDbCircle
 10
1341.4167208848
 20
841.0943146226
 30
0.0
 40
5.655000000000086
  0
CIRCLE
  5
179
330
1F
100
AcDbEntity
  8
0
  6
Continuous
 62
     7
370
    15
100
AcDbCircle
 10
1341.4167208848
 20
841.0943146226
 30
0.0
 40
3.654999999999859
  0
CIRCLE
  5
17A
330
1F
100
AcDbEntity
  8
0
  6
Continuous
 62
     7
370
    15
100
AcDbCircle
 10
1341.4167208848
 20
841.0943146226
 30
0.0
 40
3.499999999999886
  0
CIRCLE
  5
17B
330
1F
100
AcDbEntity
  8
0
  6
Continuous
 62
     7
370
    15
100
AcDbCircle
 10
1687.9167208848
 20
831.0943146226
 30
0.0
 40
3.500000000000114
  0
CIRCLE
  5
17C
330
1F
100
AcDbEntity
  8
0
  6
Continuous
 62
     7
370
    15
100
AcDbCircle
 10
1717.9167208848
 20
831.0943146226
 30
0.0
 40
5.654999999999973
  0
CIRCLE
  5
17D
330
1F
100
AcDbEntity
  8
0
  6
Continuous
 62
     7
370
    15
100
AcDbCircle
 10
1717.9167208848
 20
831.0943146226
 30
0.0
 40
3.654999999999973
  0
CIRCLE
  5
17E
330
1F
100
AcDbEntity
  8
0
  6
Continuous
 62
     7
370
    15
100
AcDbCircle
 10
1717.9167208848
 20
831.0943146226
 30
0.0
 40
3.500000000000114
  0
CIRCLE
  5
17F
330
1F
100
AcDbEntity
  8
0
  6
Continuous
 62
     7
370
    15
100
AcDbCircle
 10
1747.9167208848
 20
831.0943146226
 30
0.0
 40
5.654999999999973
  0
CIRCLE
  5
180
330
1F
100
AcDbEntity
  8
0
  6
Continuous
 62
     7
370
    15
100
AcDbCircle
 10
1747.9167208848
 20
831.0943146226
 30
0.0
 40
3.654999999999973
  0
CIRCLE
  5
181
330
1F
100
AcDbEntity
  8
0
  6
Continuous
 62
     7
370
    15
100
AcDbCircle
 10
1747.9167208848
 20
831.0943146226
 30
0.0
 40
3.500000000000114
  0
CIRCLE
  5
182
330
1F
100
AcDbEntity
  8
0
  6
Continuous
 62
     7
370
    15
100
AcDbCircle
 10
1777.9167208848
 20
831.0943146226
 30
0.0
 40
5.654999999999973
  0
CIRCLE
  5
183
330
1F
100
AcDbEntity
  8
0
  6
Continuous
 62
     7
370
    15
100
AcDbCircle
 10
1777.9167208848
 20
831.0943146226
 30
0.0
 40
3.654999999999973
  0
CIRCLE
  5
184
330
1F
100
AcDbEntity
  8
0
  6
Continuous
 62
     7
370
    15
100
AcDbCircle
 10
1777.9167208848
 20
831.0943146226
 30
0.0
 40
3.500000000000114
  0
CIRCLE
  5
185
330
1F
100
AcDbEntity
  8
0
  6
Continuous
 62
     7
370
    15
100
AcDbCircle
 10
1807.9167208848
 20
831.0943146226
 30
0.0
 40
5.654999999999973
  0
CIRCLE
  5
186
330
1F
100
AcDbEntity
  8
0
  6
Continuous
 62
     7
370
    15
100
AcDbCircle
 10
1807.9167208848
 20
831.0943146226
 30
0.0
 40
3.654999999999973
  0
CIRCLE
  5
187
330
1F
100
AcDbEntity
  8
0
  6
Continuous
 62
     7
370
    15
100
AcDbCircle
 10
1807.9167208848
 20
831.0943146226
 30
0.0
 40
3.500000000000114
  0
CIRCLE
  5
188
330
1F
100
AcDbEntity
  8
0
  6
Continuous
 62
     7
370
    15
100
AcDbCircle
 10
1611.4167208848
 20
841.0943146226
 30
0.0
 40
5.655000000000086
  0
CIRCLE
  5
189
330
1F
100
AcDbEntity
  8
0
  6
Continuous
 62
     7
370
    15
100
AcDbCircle
 10
1611.4167208848
 20
841.0943146226
 30
0.0
 40
3.654999999999859
  0
CIRCLE
  5
18A
330
1F
100
AcDbEntity
  8
0
  6
Continuous
 62
     7
370
    15
100
AcDbCircle
 10
1611.4167208848
 20
841.0943146226
 30
0.0
 40
3.499999999999886
  0
CIRCLE
  5
18B
330
1F
100
AcDbEntity
  8
0
  6
Continuous
 62
     7
370
    15
100
AcDbCircle
 10
1551.4167208848
 20
841.0943146226
 30
0.0
 40
5.655000000000086
  0
CIRCLE
  5
18C
330
1F
100
AcDbEntity
  8
0
  6
Continuous
 62
     7
370
    15
100
AcDbCircle
 10
1551.4167208848
 20
841.0943146226
 30
0.0
 40
3.654999999999859
  0
CIRCLE
  5
18D
330
1F
100
AcDbEntity
  8
0
  6
Continuous
 62
     7
370
    15
100
AcDbCircle
 10
1551.4167208848
 20
841.0943146226
 30
0.0
 40
3.499999999999886
  0
CIRCLE
  5
18E
330
1F
100
AcDbEntity
  8
0
  6
Continuous
 62
     7
370
    15
100
AcDbCircle
 10
1671.4167208848
 20
841.0943146226
 30
0.0
 40
3.654999999999859
  0
CIRCLE
  5
18F
330
1F
100
AcDbEntity
  8
0
  6
Continuous
 62
     7
370
    15
100
AcDbCircle
 10
1671.4167208848
 20
841.0943146226
 30
0.0
 40
3.499999999999886
  0
CIRCLE
  5
190
330
1F
100
AcDbEntity
  8
0
  6
Continuous
 62
     7
370
    15
100
AcDbCircle
 10
1701.4167208848
 20
841.0943146226
 30
0.0
 40
5.655000000000086
  0
CIRCLE
  5
191
330
1F
100
AcDbEntity
  8
0
  6
Continuous
 62
     7
370
    15
100
AcDbCircle
 10
1701.4167208848
 20
841.0943146226
 30
0.0
 40
3.654999999999859
  0
CIRCLE
  5
192
330
1F
100
AcDbEntity
  8
0
  6
Continuous
 62
     7
370
    15
100
AcDbCircle
 10
1701.4167208848
 20
841.0943146226
 30
0.0
 40
3.499999999999886
  0
CIRCLE
  5
193
330
1F
100
AcDbEntity
  8
0
  6
Continuous
 62
     7
370
    15
100
AcDbCircle
 10
1731.4167208848
 20
841.0943146226
 30
0.0
 40
5.655000000000086
  0
CIRCLE
  5
194
330
1F
100
AcDbEntity
  8
0
  6
Continuous
 62
     7
370
    15
100
AcDbCircle
 10
1731.4167208848
 20
841.0943146226
 30
0.0
 40
3.654999999999859
  0
CIRCLE
  5
195
330
1F
100
AcDbEntity
  8
0
  6
Continuous
 62
     7
370
    15
100
AcDbCircle
 10
1731.4167208848
 20
841.0943146226
 30
0.0
 40
3.499999999999886
  0
CIRCLE
  5
196
330
1F
100
AcDbEntity
  8
0
  6
Continuous
 62
     7
370
    15
100
AcDbCircle
 10
1761.4167208848
 20
841.0943146226
 30
0.0
 40
5.655000000000086
  0
CIRCLE
  5
197
330
1F
100
AcDbEntity
  8
0
  6
Continuous
 62
     7
370
    15
100
AcDbCircle
 10
1761.4167208848
 20
841.0943146226
 30
0.0
 40
3.654999999999859
  0
CIRCLE
  5
198
330
1F
100
AcDbEntity
  8
0
  6
Continuous
 62
     7
370
    15
100
AcDbCircle
 10
1761.4167208848
 20
841.0943146226
 30
0.0
 40
3.499999999999886
  0
CIRCLE
  5
199
330
1F
100
AcDbEntity
  8
0
  6
Continuous
 62
     7
370
    15
100
AcDbCircle
 10
1791.4167208848
 20
841.0943146226
 30
0.0
 40
5.655000000000086
  0
CIRCLE
  5
19A
330
1F
100
AcDbEntity
  8
0
  6
Continuous
 62
     7
370
    15
100
AcDbCircle
 10
1791.4167208848
 20
841.0943146226
 30
0.0
 40
3.654999999999859
  0
CIRCLE
  5
19B
330
1F
100
AcDbEntity
  8
0
  6
Continuous
 62
     7
370
    15
100
AcDbCircle
 10
1791.4167208848
 20
841.0943146226
 30
0.0
 40
3.499999999999886
  0
CIRCLE
  5
19C
330
1F
100
AcDbEntity
  8
0
  6
Continuous
 62
     7
370
    15
100
AcDbCircle
 10
1821.4167208848
 20
841.0943146226
 30
0.0
 40
5.655000000000086
  0
CIRCLE
  5
19D
330
1F
100
AcDbEntity
  8
0
  6
Continuous
 62
     7
370
    15
100
AcDbCircle
 10
1821.4167208848
 20
841.0943146226
 30
0.0
 40
3.654999999999859
  0
CIRCLE
  5
19E
330
1F
100
AcDbEntity
  8
0
  6
Continuous
 62
     7
370
    15
100
AcDbCircle
 10
1821.4167208848
 20
841.0943146226
 30
0.0
 40
3.499999999999886
  0
CIRCLE
  5
19F
330
1F
100
AcDbEntity
  8
0
  6
Continuous
 62
     7
370
    15
100
AcDbCircle
 10
1641.4167208848
 20
841.0943146226
 30
0.0
 40
5.655000000000086
  0
CIRCLE
  5
1A0
330
1F
100
AcDbEntity
  8
0
  6
Continuous
 62
     7
370
    15
100
AcDbCircle
 10
1641.4167208848
 20
841.0943146226
 30
0.0
 40
3.654999999999859
  0
CIRCLE
  5
1A1
330
1F
100
AcDbEntity
  8
0
  6
Continuous
 62
     7
370
    15
100
AcDbCircle
 10
1641.4167208848
 20
841.0943146226
 30
0.0
 40
3.499999999999886
  0
CIRCLE
  5
1A2
330
1F
100
AcDbEntity
  8
0
  6
Continuous
 62
     7
370
    15
100
AcDbCircle
 10
1671.4167208848
 20
841.0943146226
 30
0.0
 40
5.655000000000086
  0
CIRCLE
  5
1A3
330
1F
100
AcDbEntity
  8
0
  6
Continuous
 62
     7
370
    15
100
AcDbCircle
 10
1311.4167208848
 20
841.0943146226
 30
0.0
 40
5.655000000000086
  0
CIRCLE
  5
1A4
330
1F
100
AcDbEntity
  8
0
  6
Continuous
 62
     7
370
    15
100
AcDbCircle
 10
1311.4167208848
 20
841.0943146226
 30
0.0
 40
3.654999999999859
  0
CIRCLE
  5
1A5
330
1F
100
AcDbEntity
  8
0
  6
Continuous
 62
     7
370
    15
100
AcDbCircle
 10
1311.4167208848
 20
841.0943146226
 30
0.0
 40
3.499999999999886
  0
CIRCLE
  5
1A6
330
1F
100
AcDbEntity
  8
0
  6
Continuous
 62
     7
370
    15
100
AcDbCircle
 10
1281.4167208848
 20
841.0943146226
 30
0.0
 40
5.655000000000086
  0
CIRCLE
  5
1A7
330
1F
100
AcDbEntity
  8
0
  6
Continuous
 62
     7
370
    15
100
AcDbCircle
 10
1281.4167208848
 20
841.0943146226
 30
0.0
 40
3.654999999999859
  0
CIRCLE
  5
1A8
330
1F
100
AcDbEntity
  8
0
  6
Continuous
 62
     7
370
    15
100
AcDbCircle
 10
1281.4167208848
 20
841.0943146226
 30
0.0
 40
3.499999999999886
  0
CIRCLE
  5
1A9
330
1F
100
AcDbEntity
  8
0
  6
Continuous
 62
     7
370
    15
100
AcDbCircle
 10
1251.4167208848
 20
841.0943146226
 30
0.0
 40
5.655000000000086
  0
CIRCLE
  5
1AA
330
1F
100
AcDbEntity
  8
0
  6
Continuous
 62
     7
370
    15
100
AcDbCircle
 10
1251.4167208848
 20
841.0943146226
 30
0.0
 40
3.654999999999859
  0
CIRCLE
  5
1AB
330
1F
100
AcDbEntity
  8
0
  6
Continuous
 62
     7
370
    15
100
AcDbCircle
 10
1251.4167208848
 20
841.0943146226
 30
0.0
 40
3.499999999999886
  0
CIRCLE
  5
1AC
330
1F
100
AcDbEntity
  8
0
  6
Continuous
 62
     7
370
    15
100
AcDbCircle
 10
1581.4167208848
 20
841.0943146226
 30
0.0
 40
5.655000000000086
  0
CIRCLE
  5
1AD
330
1F
100
AcDbEntity
  8
0
  6
Continuous
 62
     7
370
    15
100
AcDbCircle
 10
1581.4167208848
 20
841.0943146226
 30
0.0
 40
3.654999999999859
  0
CIRCLE
  5
1AE
330
1F
100
AcDbEntity
  8
0
  6
Continuous
 62
     7
370
    15
100
AcDbCircle
 10
1581.4167208848
 20
841.0943146226
 30
0.0
 40
3.499999999999886
  0
CIRCLE
  5
1AF
330
1F
100
AcDbEntity
  8
0
  6
Continuous
 62
     7
370
    15
100
AcDbCircle
 10
1537.9167208848
 20
831.0943146226
 30
0.0
 40
5.654999999999973
  0
CIRCLE
  5
1B0
330
1F
100
AcDbEntity
  8
0
  6
Continuous
 62
     7
370
    15
100
AcDbCircle
 10
1537.9167208848
 20
831.0943146226
 30
0.0
 40
3.654999999999973
  0
CIRCLE
  5
1B1
330
1F
100
AcDbEntity
  8
0
  6
Continuous
 62
     7
370
    15
100
AcDbCircle
 10
1537.9167208848
 20
831.0943146226
 30
0.0
 40
3.500000000000114
  0
LINE
  5
1B2
330
1F
100
AcDbEntity
  8
0
  6
Continuous
 62
     7
370
    15
100
AcDbLine
 10
1601.6667208848
 20
1050.5943146226
 30
0.0
 11
1601.6667208848
 21
851.0943146226
 31
0.0
  0
LINE
  5
1B3
330
1F
100
AcDbEntity
  8
0
  6
Continuous
 62
     7
370
    15
100
AcDbLine
 10
1601.6667208848
 20
851.0943146226
 30
0.0
 11
1631.6667208848
 21
851.0943146226
 31
0.0
  0
LINE
  5
1B4
330
1F
100
AcDbEntity
  8
0
  6
Continuous
 62
     7
370
    15
100
AcDbLine
 10
1631.6667208848
 20
1050.5943146226
 30
0.0
 11
1631.6667208848
 21
851.0943146226
 31
0.0
  0
LINE
  5
1B5
330
1F
100
AcDbEntity
  8
0
  6
Continuous
 62
     7
370
    15
100
AcDbLine
 10
1601.6667208848
 20
1050.5943146226
 30
0.0
 11
1631.6667208848
 21
1050.5943146226
 31
0.0
  0
LINE
  5
1B6
330
1F
100
AcDbEntity
  8
0
  6
Continuous
 62
     7
370
    15
100
AcDbLine
 10
1538.6667208848
 20
1050.5943146226
 30
0.0
 11
1538.6667208848
 21
851.0943146226
 31
0.0
  0
LINE
  5
1B7
330
1F
100
AcDbEntity
  8
0
  6
Continuous
 62
     7
370
    15
100
AcDbLine
 10
1538.6667208848
 20
851.0943146226
 30
0.0
 11
1568.6667208848
 21
851.0943146226
 31
0.0
  0
LINE
  5
1B8
330
1F
100
AcDbEntity
  8
0
  6
Continuous
 62
     7
370
    15
100
AcDbLine
 10
1568.6667208848
 20
1050.5943146226
 30
0.0
 11
1568.6667208848
 21
851.0943146226
 31
0.0
  0
LINE
  5
1B9
330
1F
100
AcDbEntity
  8
0
  6
Continuous
 62
     7
370
    15
100
AcDbLine
 10
1538.6667208848
 20
1050.5943146226
 30
0.0
 11
1568.6667208848
 21
1050.5943146226
 31
0.0
  0
LINE
  5
1BA
330
1F
100
AcDbEntity
  8
0
  6
Continuous
 62
     7
370
    15
100
AcDbLine
 10
1240.9167208848
 20
1050.5943146226
 30
0.0
 11
1240.9167208848
 21
851.0943146226
 31
0.0
  0
LINE
  5
1BB
330
1F
100
AcDbEntity
  8
0
  6
Continuous
 62
     7
370
    15
100
AcDbLine
 10
1240.9167208848
 20
851.0943146226
 30
0.0
 11
1411.1667208848
 21
851.0943146226
 31
0.0
  0
LINE
  5
1BC
330
1F
100
AcDbEntity
  8
0
  6
Continuous
 62
     7
370
    15
100
AcDbLine
 10
1411.1667208848
 20
1050.5943146226
 30
0.0
 11
1411.1667208848
 21
851.0943146226
 31
0.0
  0
LINE
  5
1BD
330
1F
100
AcDbEntity
  8
0
  6
Continuous
 62
     7
370
    15
100
AcDbLine
 10
1240.9167208848
 20
1050.5943146226
 30
0.0
 11
1411.1667208848
 21
1050.5943146226
 31
0.0
  0
LINE
  5
1BE
330
1F
100
AcDbEntity
  8
0
  6
Continuous
 62
     7
370
    15
100
AcDbLine
 10
1412.6667208848
 20
851.0943146226
 30
0.0
 11
1442.6667208848
 21
851.0943146226
 31
0.0
  0
LINE
  5
1BF
330
1F
100
AcDbEntity
  8
0
  6
Continuous
 62
     7
370
    15
100
AcDbLine
 10
1442.6667208848
 20
1050.5943146226
 30
0.0
 11
1442.6667208848
 21
851.0943146226
 31
0.0
  0
LINE
  5
1C0
330
1F
100
AcDbEntity
  8
0
  6
Continuous
 62
     7
370
    15
100
AcDbLine
 10
1412.6667208848
 20
1050.5943146226
 30
0.0
 11
1442.6667208848
 21
1050.5943146226
 31
0.0
  0
LINE
  5
1C1
330
1F
100
AcDbEntity
  8
0
  6
Continuous
 62
     7
370
    15
100
AcDbLine
 10
1412.6667208848
 20
1050.5943146226
 30
0.0
 11
1412.6667208848
 21
851.0943146226
 31
0.0
  0
LINE
  5
1C2
330
1F
100
AcDbEntity
  8
0
  6
Continuous
 62
     7
370
    15
100
AcDbLine
 10
1475.6667208848
 20
851.0943146226
 30
0.0
 11
1505.6667208848
 21
851.0943146226
 31
0.0
  0
LINE
  5
1C3
330
1F
100
AcDbEntity
  8
0
  6
Continuous
 62
     7
370
    15
100
AcDbLine
 10
1505.6667208848
 20
1050.5943146226
 30
0.0
 11
1505.6667208848
 21
851.0943146226
 31
0.0
  0
LINE
  5
1C4
330
1F
100
AcDbEntity
  8
0
  6
Continuous
 62
     7
370
    15
100
AcDbLine
 10
1475.6667208848
 20
1050.5943146226
 30
0.0
 11
1505.6667208848
 21
1050.5943146226
 31
0.0
  0
LINE
  5
1C5
330
1F
100
AcDbEntity
  8
0
  6
Continuous
 62
     7
370
    15
100
AcDbLine
 10
1475.6667208848
 20
1050.5943146226
 30
0.0
 11
1475.6667208848
 21
851.0943146226
 31
0.0
  0
LINE
  5
1C6
330
1F
100
AcDbEntity
  8
0
  6
Continuous
 62
     7
370
    15
100
AcDbLine
 10
1237.9167208848
 20
821.0943146226
 30
0.0
 11
1837.9167208848
 21
821.0943146226
 31
0.0
  0
LINE
  5
1C7
330
1F
100
AcDbEntity
  8
0
  6
Continuous
 62
     7
370
    15
100
AcDbLine
 10
1237.9167208848
 20
1061.0943146226
 30
0.0
 11
1237.9167208848
 21
821.0943146226
 31
0.0
  0
LINE
  5
1C8
330
1F
100
AcDbEntity
  8
0
  6
Continuous
 62
     7
370
    15
100
AcDbLine
 10
1237.9167208848
 20
1061.0943146226
 30
0.0
 11
1837.9167208848
 21
1061.0943146226
 31
0.0
  0
LINE
  5
1C9
330
1F
100
AcDbEntity
  8
0
  6
Continuous
 62
     7
370
    15
100
AcDbLine
 10
1837.9167208848
 20
1061.0943146226
 30
0.0
 11
1837.9167208848
 21
821.0943146226
 31
0.0
  0
LINE
  5
1CA
330
1F
100
AcDbEntity
  8
0
  6
Continuous
 62
     7
370
    15
100
AcDbLine
 10
1507.1667208848
 20
851.0943146226
 30
0.0
 11
1537.1667208848
 21
851.0943146226
 31
0.0
  0
LINE
  5
1CB
330
1F
100
AcDbEntity
  8
0
  6
Continuous
 62
     7
370
    15
100
AcDbLine
 10
1537.1667208848
 20
1050.5943146226
 30
0.0
 11
1537.1667208848
 21
851.0943146226
 31
0.0
  0
LINE
  5
1CC
330
1F
100
AcDbEntity
  8
0
  6
Continuous
 62
     7
370
    15
100
AcDbLine
 10
1507.1667208848
 20
1050.5943146226
 30
0.0
 11
1537.1667208848
 21
1050.5943146226
 31
0.0
  0
LINE
  5
1CD
330
1F
100
AcDbEntity
  8
0
  6
Continuous
 62
     7
370
    15
100
AcDbLine
 10
1507.1667208848
 20
1050.5943146226
 30
0.0
 11
1507.1667208848
 21
851.0943146226
 31
0.0
  0
LINE
  5
1CE
330
1F
100
AcDbEntity
  8
0
  6
Continuous
 62
     7
370
    15
100
AcDbLine
 10
1444.1667208848
 20
851.0943146226
 30
0.0
 11
1474.1667208848
 21
851.0943146226
 31
0.0
  0
LINE
  5
1CF
330
1F
100
AcDbEntity
  8
0
  6
Continuous
 62
     7
370
    15
100
AcDbLine
 10
1474.1667208848
 20
1050.5943146226
 30
0.0
 11
1474.1667208848
 21
851.0943146226
 31
0.0
  0
LINE
  5
1D0
330
1F
100
AcDbEntity
  8
0
  6
Continuous
 62
     7
370
    15
100
AcDbLine
 10
1444.1667208848
 20
1050.5943146226
 30
0.0
 11
1474.1667208848
 21
1050.5943146226
 31
0.0
  0
LINE
  5
1D1
330
1F
100
AcDbEntity
  8
0
  6
Continuous
 62
     7
370
    15
100
AcDbLine
 10
1444.1667208848
 20
1050.5943146226
 30
0.0
 11
1444.1667208848
 21
851.0943146226
 31
0.0
  0
LINE
  5
1D2
330
1F
100
AcDbEntity
  8
0
  6
Continuous
 62
     7
370
    15
100
AcDbLine
 10
1570.1667208848
 20
1050.5943146226
 30
0.0
 11
1570.1667208848
 21
851.0943146226
 31
0.0
  0
LINE
  5
1D3
330
1F
100
AcDbEntity
  8
0
  6
Continuous
 62
     7
370
    15
100
AcDbLine
 10
1570.1667208848
 20
851.0943146226
 30
0.0
 11
1600.1667208848
 21
851.0943146226
 31
0.0
  0
LINE
  5
1D4
330
1F
100
AcDbEntity
  8
0
  6
Continuous
 62
     7
370
    15
100
AcDbLine
 10
1600.1667208848
 20
1050.5943146226
 30
0.0
 11
1600.1667208848
 21
851.0943146226
 31
0.0
  0
LINE
  5
1D5
330
1F
100
AcDbEntity
  8
0
  6
Continuous
 62
     7
370
    15
100
AcDbLine
 10
1570.1667208848
 20
1050.5943146226
 30
0.0
 11
1600.1667208848
 21
1050.5943146226
 31
0.0
  0
LINE
  5
1D6
330
1F
100
AcDbEntity
  8
0
  6
Continuous
 62
     7
370
    15
100
AcDbLine
 10
1664.6667208848
 20
851.0943146226
 30
0.0
 11
1834.9167208848
 21
851.0943146226
 31
0.0
  0
LINE
  5
1D7
330
1F
100
AcDbEntity
  8
0
  6
Continuous
 62
     7
370
    15
100
AcDbLine
 10
1664.6667208848
 20
1050.5943146226
 30
0.0
 11
1834.9167208848
 21
1050.5943146226
 31
0.0
  0
LINE
  5
1D8
330
1F
100
AcDbEntity
  8
0
  6
Continuous
 62
     7
370
    15
100
AcDbLine
 10
1664.6667208848
 20
1050.5943146226
 30
0.0
 11
1664.6667208848
 21
851.0943146226
 31
0.0
  0
LINE
  5
1D9
330
1F
100
AcDbEntity
  8
0
  6
Continuous
 62
     7
370
    15
100
AcDbLine
 10
1633.1667208848
 20
1050.5943146226
 30
0.0
 11
1633.1667208848
 21
851.0943146226
 31
0.0
  0
LINE
  5
1DA
330
1F
100
AcDbEntity
  8
0
  6
Continuous
 62
     7
370
    15
100
AcDbLine
 10
1633.1667208848
 20
851.0943146226
 30
0.0
 11
1663.1667208848
 21
851.0943146226
 31
0.0
  0
LINE
  5
1DB
330
1F
100
AcDbEntity
  8
0
  6
Continuous
 62
     7
370
    15
100
AcDbLine
 10
1663.1667208848
 20
1050.5943146226
 30
0.0
 11
1663.1667208848
 21
851.0943146226
 31
0.0
  0
LINE
  5
1DC
330
1F
100
AcDbEntity
  8
0
  6
Continuous
 62
     7
370
    15
100
AcDbLine
 10
1633.1667208848
 20
1050.5943146226
 30
0.0
 11
1663.1667208848
 21
1050.5943146226
 31
0.0
  0
LINE
  5
1DD
330
1F
100
AcDbEntity
  8
0
  6
Continuous
 62
     7
370
    15
100
AcDbLine
 10
1834.9167208848
 20
1050.5943146226
 30
0.0
 11
1834.9167208848
 21
851.0943146226
 31
0.0
  0
LINE
  5
1DE
330
1F
100
AcDbEntity
  8
0
  6
Continuous
 62
     7
370
    15
100
AcDbLine
 10
1475.6667208848
 20
833.7752659463
 30
0.0
 11
1475.6667208848
 21
828.413363299
 31
0.0
  0
LINE
  5
1DF
330
1F
100
AcDbEntity
  8
0
  6
Continuous
 62
     7
370
    15
100
AcDbLine
 10
1507.1667208848
 20
834.5130132054
 30
0.0
 11
1507.1667208848
 21
827.6756160398
 31
0.0
  0
LINE
  5
1E0
330
1F
100
AcDbEntity
  8
0
  6
Continuous
 62
     7
370
    15
100
AcDbLine
 10
1505.6667208848
 20
833.7752659463
 30
0.0
 11
1505.6667208848
 21
828.413363299
 31
0.0
  0
LINE
  5
1E1
330
1F
100
AcDbEntity
  8
0
  6
Continuous
 62
     7
370
    15
100
AcDbLine
 10
1600.1667208848
 20
833.7752659463
 30
0.0
 11
1600.1667208848
 21
828.413363299
 31
0.0
  0
LINE
  5
1E2
330
1F
100
AcDbEntity
  8
0
  6
Continuous
 62
     7
370
    15
100
AcDbLine
 10
1538.6667208848
 20
827.6756160398
 30
0.0
 11
1538.6667208848
 21
834.5130132054
 31
0.0
  0
LINE
  5
1E3
330
1F
100
AcDbEntity
  8
0
  6
Continuous
 62
     7
370
    15
100
AcDbLine
 10
1537.1667208848
 20
834.5130132054
 30
0.0
 11
1537.1667208848
 21
827.6756160398
 31
0.0
  0
LINE
  5
1E4
330
1F
100
AcDbEntity
  8
0
  6
Continuous
 62
     7
370
    15
100
AcDbLine
 10
1570.1667208848
 20
833.7752659463
 30
0.0
 11
1570.1667208848
 21
828.413363299
 31
0.0
  0
LINE
  5
1E5
330
1F
100
AcDbEntity
  8
0
  6
Continuous
 62
     7
370
    15
100
AcDbLine
 10
1568.6667208848
 20
834.5130132054
 30
0.0
 11
1568.6667208848
 21
827.6756160398
 31
0.0
  0
LINE
  5
1E6
330
1F
100
AcDbEntity
  8
0
  6
Continuous
 62
     7
370
    15
100
AcDbLine
 10
1240.9167208848
 20
1034.2095383118
 30
0.0
 11
1253.6667208848
 21
1034.2095383118
 31
0.0
  0
LINE
  5
1E7
330
1F
100
AcDbEntity
  8
0
  6
Continuous
 62
     7
370
    15
100
AcDbLine
 10
1255.1667208848
 20
1034.2095383118
 30
0.0
 11
1285.1667208848
 21
1034.2095383118
 31
0.0
  0
LINE
  5
1E8
330
1F
100
AcDbEntity
  8
0
  6
Continuous
 62
     7
370
    15
100
AcDbLine
 10
1286.6667208848
 20
1034.2095383118
 30
0.0
 11
1316.6667208848
 21
1034.2095383118
 31
0.0
  0
LINE
  5
1E9
330
1F
100
AcDbEntity
  8
0
  6
Continuous
 62
     7
370
    15
100
AcDbLine
 10
1318.1667208848
 20
1034.2095383118
 30
0.0
 11
1348.1667208848
 21
1034.2095383118
 31
0.0
  0
LINE
  5
1EA
330
1F
100
AcDbEntity
  8
0
  6
Continuous
 62
     7
370
    15
100
AcDbLine
 10
1349.6667208848
 20
1034.2095383118
 30
0.0
 11
1379.6667208848
 21
1034.2095383118
 31
0.0
  0
LINE
  5
1EB
330
1F
100
AcDbEntity
  8
0
  6
Continuous
 62
     7
370
    15
100
AcDbLine
 10
1381.1667208848
 20
1034.2095383118
 30
0.0
 11
1411.1667208848
 21
1034.2095383118
 31
0.0
  0
LINE
  5
1EC
330
1F
100
AcDbEntity
  8
0
  6
Continuous
 62
     7
370
    15
100
AcDbLine
 10
1412.6667208848
 20
1034.2095383118
 30
0.0
 11
1442.6667208848
 21
1034.2095383118
 31
0.0
  0
LINE
  5
1ED
330
1F
100
AcDbEntity
  8
0
  6
Continuous
 62
     7
370
    15
100
AcDbLine
 10
1444.1667208848
 20
1034.2095383118
 30
0.0
 11
1474.1667208848
 21
1034.2095383118
 31
0.0
  0
LINE
  5
1EE
330
1F
100
AcDbEntity
  8
0
  6
Continuous
 62
     7
370
    15
100
AcDbLine
 10
1475.6667208848
 20
1034.2095383118
 30
0.0
 11
1505.6667208848
 21
1034.2095383118
 31
0.0
  0
LINE
  5
1EF
330
1F
100
AcDbEntity
  8
0
  6
Continuous
 62
     7
370
    15
100
AcDbLine
 10
1507.1667208848
 20
1034.2095383118
 30
0.0
 11
1537.1667208848
 21
1034.2095383118
 31
0.0
  0
LINE
  5
1F0
330
1F
100
AcDbEntity
  8
0
  6
Continuous
 62
     7
370
    15
100
AcDbLine
 10
1538.6667208848
 20
1034.2095383118
 30
0.0
 11
1568.6667208848
 21
1034.2095383118
 31
0.0
  0
LINE
  5
1F1
330
1F
100
AcDbEntity
  8
0
  6
Continuous
 62
     7
370
    15
100
AcDbLine
 10
1570.1667208848
 20
1034.2095383118
 30
0.0
 11
1600.1667208848
 21
1034.2095383118
 31
0.0
  0
LINE
  5
1F2
330
1F
100
AcDbEntity
  8
0
  6
Continuous
 62
     7
370
    15
100
AcDbLine
 10
1601.6667208848
 20
1034.2095383118
 30
0.0
 11
1631.6667208848
 21
1034.2095383118
 31
0.0
  0
LINE
  5
1F3
330
1F
100
AcDbEntity
  8
0
  6
Continuous
 62
     7
370
    15
100
AcDbLine
 10
1633.1667208848
 20
1034.2095383118
 30
0.0
 11
1663.1667208848
 21
1034.2095383118
 31
0.0
  0
LINE
  5
1F4
330
1F
100
AcDbEntity
  8
0
  6
Continuous
 62
     7
370
    15
100
AcDbLine
 10
1664.6667208848
 20
1034.2095383118
 30
0.0
 11
1694.6667208848
 21
1034.2095383118
 31
0.0
  0
LINE
  5
1F5
330
1F
100
AcDbEntity
  8
0
  6
Continuous
 62
     7
370
    15
100
AcDbLine
 10
1696.1667208848
 20
1034.2095383118
 30
0.0
 11
1726.1667208848
 21
1034.2095383118
 31
0.0
  0
LINE
  5
1F6
330
1F
100
AcDbEntity
  8
0
  6
Continuous
 62
     7
370
    15
100
AcDbLine
 10
1727.6667208848
 20
1034.2095383118
 30
0.0
 11
1757.6667208848
 21
1034.2095383118
 31
0.0
  0
LINE
  5
1F7
330
1F
100
AcDbEntity
  8
0
  6
Continuous
 62
     7
370
    15
100
AcDbLine
 10
1759.1667208848
 20
1034.2095383118
 30
0.0
 11
1789.1667208848
 21
1034.2095383118
 31
0.0
  0
LINE
  5
1F8
330
1F
100
AcDbEntity
  8
0
  6
Continuous
 62
     7
370
    15
100
AcDbLine
 10
1790.6667208848
 20
1034.2095383118
 30
0.0
 11
1820.6667208848
 21
1034.2095383118
 31
0.0
  0
LINE
  5
1F9
330
1F
100
AcDbEntity
  8
0
  6
Continuous
 62
     7
370
    15
100
AcDbLine
 10
1822.1667208848
 20
1034.2095383118
 30
0.0
 11
1834.9167208848
 21
1034.2095383118
 31
0.0
  0
LINE
  5
1FA
330
1F
100
AcDbEntity
  8
0
  6
Continuous
 62
     7
370
    15
100
AcDbLine
 10
1696.1667208848
 20
1050.5943146226
 30
0.0
 11
1694.6667208848
 21
1050.5943146226
 31
0.0
  0
LINE
  5
1FB
330
1F
100
AcDbEntity
  8
0
  6
Continuous
 62
     7
370
    15
100
AcDbLine
 10
1696.1667208848
 20
851.0943146226
 30
0.0
 11
1694.6667208848
 21
851.0943146226
 31
0.0
  0
LINE
  5
1FC
330
1F
100
AcDbEntity
  8
0
  6
Continuous
 62
     7
370
    15
100
AcDbLine
 10
1696.1667208848
 20
1050.5943146226
 30
0.0
 11
1696.1667208848
 21
851.0943146226
 31
0.0
  0
LINE
  5
1FD
330
1F
100
AcDbEntity
  8
0
  6
Continuous
 62
     7
370
    15
100
AcDbLine
 10
1694.6667208848
 20
1050.5943146226
 30
0.0
 11
1694.6667208848
 21
851.0943146226
 31
0.0
  0
LINE
  5
1FE
330
1F
100
AcDbEntity
  8
0
  6
Continuous
 62
     7
370
    15
100
AcDbLine
 10
1727.6667208848
 20
1050.5943146226
 30
0.0
 11
1726.1667208848
 21
1050.5943146226
 31
0.0
  0
LINE
  5
1FF
330
1F
100
AcDbEntity
  8
0
  6
Continuous
 62
     7
370
    15
100
AcDbLine
 10
1726.1667208848
 20
1050.5943146226
 30
0.0
 11
1726.1667208848
 21
851.0943146226
 31
0.0
  0
LINE
  5
200
330
1F
100
AcDbEntity
  8
0
  6
Continuous
 62
     7
370
    15
100
AcDbLine
 10
1727.6667208848
 20
851.0943146226
 30
0.0
 11
1726.1667208848
 21
851.0943146226
 31
0.0
  0
LINE
  5
201
330
1F
100
AcDbEntity
  8
0
  6
Continuous
 62
     7
370
    15
100
AcDbLine
 10
1727.6667208848
 20
1050.5943146226
 30
0.0
 11
1727.6667208848
 21
851.0943146226
 31
0.0
  0
LINE
  5
202
330
1F
100
AcDbEntity
  8
0
  6
Continuous
 62
     7
370
    15
100
AcDbLine
 10
1759.1667208848
 20
851.0943146226
 30
0.0
 11
1757.6667208848
 21
851.0943146226
 31
0.0
  0
LINE
  5
203
330
1F
100
AcDbEntity
  8
0
  6
Continuous
 62
     7
370
    15
100
AcDbLine
 10
1759.1667208848
 20
1050.5943146226
 30
0.0
 11
1759.1667208848
 21
851.0943146226
 31
0.0
  0
LINE
  5
204
330
1F
100
AcDbEntity
  8
0
  6
Continuous
 62
     7
370
    15
100
AcDbLine
 10
1757.6667208848
 20
1050.5943146226
 30
0.0
 11
1757.6667208848
 21
851.0943146226
 31
0.0
  0
LINE
  5
205
330
1F
100
AcDbEntity
  8
0
  6
Continuous
 62
     7
370
    15
100
AcDbLine
 10
1759.1667208848
 20
1050.5943146226
 30
0.0
 11
1757.6667208848
 21
1050.5943146226
 31
0.0
  0
LINE
  5
206
330
1F
100
AcDbEntity
  8
0
  6
Continuous
 62
     7
370
    15
100
AcDbLine
 10
1759.1667208848
 20
843.7752659463
 30
0.0
 11
1759.1667208848
 21
838.413363299
 31
0.0
  0
LINE
  5
207
330
1F
100
AcDbEntity
  8
0
  6
Continuous
 62
     7
370
    15
100
AcDbLine
 10
1790.6667208848
 20
1050.5943146226
 30
0.0
 11
1789.1667208848
 21
1050.5943146226
 31
0.0
  0
LINE
  5
208
330
1F
100
AcDbEntity
  8
0
  6
Continuous
 62
     7
370
    15
100
AcDbLine
 10
1790.6667208848
 20
1050.5943146226
 30
0.0
 11
1790.6667208848
 21
851.0943146226
 31
0.0
  0
LINE
  5
209
330
1F
100
AcDbEntity
  8
0
  6
Continuous
 62
     7
370
    15
100
AcDbLine
 10
1789.1667208848
 20
1050.5943146226
 30
0.0
 11
1789.1667208848
 21
851.0943146226
 31
0.0
  0
LINE
  5
20A
330
1F
100
AcDbEntity
  8
0
  6
Continuous
 62
     7
370
    15
100
AcDbLine
 10
1790.6667208848
 20
851.0943146226
 30
0.0
 11
1789.1667208848
 21
851.0943146226
 31
0.0
  0
LINE
  5
20B
330
1F
100
AcDbEntity
  8
0
  6
Continuous
 62
     7
370
    15
100
AcDbLine
 10
1790.6667208848
 20
844.5130132054
 30
0.0
 11
1790.6667208848
 21
837.6756160398
 31
0.0
  0
LINE
  5
20C
330
1F
100
AcDbEntity
  8
0
  6
Continuous
 62
     7
370
    15
100
AcDbLine
 10
1789.1667208848
 20
843.7752659463
 30
0.0
 11
1789.1667208848
 21
838.413363299
 31
0.0
  0
LINE
  5
20D
330
1F
100
AcDbEntity
  8
0
  6
Continuous
 62
     7
370
    15
100
AcDbLine
 10
1822.1667208848
 20
851.0943146226
 30
0.0
 11
1820.6667208848
 21
851.0943146226
 31
0.0
  0
LINE
  5
20E
330
1F
100
AcDbEntity
  8
0
  6
Continuous
 62
     7
370
    15
100
AcDbLine
 10
1820.6667208848
 20
1050.5943146226
 30
0.0
 11
1820.6667208848
 21
851.0943146226
 31
0.0
  0
LINE
  5
20F
330
1F
100
AcDbEntity
  8
0
  6
Continuous
 62
     7
370
    15
100
AcDbLine
 10
1822.1667208848
 20
1050.5943146226
 30
0.0
 11
1822.1667208848
 21
851.0943146226
 31
0.0
  0
LINE
  5
210
330
1F
100
AcDbEntity
  8
0
  6
Continuous
 62
     7
370
    15
100
AcDbLine
 10
1822.1667208848
 20
1050.5943146226
 30
0.0
 11
1820.6667208848
 21
1050.5943146226
 31
0.0
  0
LINE
  5
211
330
1F
100
AcDbEntity
  8
0
  6
Continuous
 62
     7
370
    15
100
AcDbLine
 10
1820.6667208848
 20
844.5130132054
 30
0.0
 11
1820.6667208848
 21
837.6756160398
 31
0.0
  0
LINE
  5
212
330
1F
100
AcDbEntity
  8
0
  6
Continuous
 62
     7
370
    15
100
AcDbLine
 10
1822.1667208848
 20
844.5130132054
 30
0.0
 11
1822.1667208848
 21
837.6756160398
 31
0.0
  0
LINE
  5
213
330
1F
100
AcDbEntity
  8
0
  6
Continuous
 62
     7
370
    15
100
AcDbLine
 10
1381.1667208848
 20
1050.5943146226
 30
0.0
 11
1381.1667208848
 21
851.0943146226
 31
0.0
  0
LINE
  5
214
330
1F
100
AcDbEntity
  8
0
  6
Continuous
 62
     7
370
    15
100
AcDbLine
 10
1379.6667208848
 20
1050.5943146226
 30
0.0
 11
1379.6667208848
 21
851.0943146226
 31
0.0
  0
LINE
  5
215
330
1F
100
AcDbEntity
  8
0
  6
Continuous
 62
     7
370
    15
100
AcDbLine
 10
1381.1667208848
 20
851.0943146226
 30
0.0
 11
1379.6667208848
 21
851.0943146226
 31
0.0
  0
LINE
  5
216
330
1F
100
AcDbEntity
  8
0
  6
Continuous
 62
     7
370
    15
100
AcDbLine
 10
1381.1667208848
 20
1050.5943146226
 30
0.0
 11
1379.6667208848
 21
1050.5943146226
 31
0.0
  0
LINE
  5
217
330
1F
100
AcDbEntity
  8
0
  6
Continuous
 62
     7
370
    15
100
AcDbLine
 10
1348.1667208848
 20
1050.5943146226
 30
0.0
 11
1348.1667208848
 21
851.0943146226
 31
0.0
  0
LINE
  5
218
330
1F
100
AcDbEntity
  8
0
  6
Continuous
 62
     7
370
    15
100
AcDbLine
 10
1349.6667208848
 20
1050.5943146226
 30
0.0
 11
1348.1667208848
 21
1050.5943146226
 31
0.0
  0
LINE
  5
219
330
1F
100
AcDbEntity
  8
0
  6
Continuous
 62
     7
370
    15
100
AcDbLine
 10
1349.6667208848
 20
851.0943146226
 30
0.0
 11
1348.1667208848
 21
851.0943146226
 31
0.0
  0
LINE
  5
21A
330
1F
100
AcDbEntity
  8
0
  6
Continuous
 62
     7
370
    15
100
AcDbLine
 10
1349.6667208848
 20
1050.5943146226
 30
0.0
 11
1349.6667208848
 21
851.0943146226
 31
0.0
  0
LINE
  5
21B
330
1F
100
AcDbEntity
  8
0
  6
Continuous
 62
     7
370
    15
100
AcDbLine
 10
1318.1667208848
 20
1050.5943146226
 30
0.0
 11
1318.1667208848
 21
851.0943146226
 31
0.0
  0
LINE
  5
21C
330
1F
100
AcDbEntity
  8
0
  6
Continuous
 62
     7
370
    15
100
AcDbLine
 10
1316.6667208848
 20
1050.5943146226
 30
0.0
 11
1316.6667208848
 21
851.0943146226
 31
0.0
  0
LINE
  5
21D
330
1F
100
AcDbEntity
  8
0
  6
Continuous
 62
     7
370
    15
100
AcDbLine
 10
1318.1667208848
 20
1050.5943146226
 30
0.0
 11
1316.6667208848
 21
1050.5943146226
 31
0.0
  0
LINE
  5
21E
330
1F
100
AcDbEntity
  8
0
  6
Continuous
 62
     7
370
    15
100
AcDbLine
 10
1318.1667208848
 20
851.0943146226
 30
0.0
 11
1316.6667208848
 21
851.0943146226
 31
0.0
  0
LINE
  5
21F
330
1F
100
AcDbEntity
  8
0
  6
Continuous
 62
     7
370
    15
100
AcDbLine
 10
1285.1667208848
 20
1050.5943146226
 30
0.0
 11
1285.1667208848
 21
851.0943146226
 31
0.0
  0
LINE
  5
220
330
1F
100
AcDbEntity
  8
0
  6
Continuous
 62
     7
370
    15
100
AcDbLine
 10
1286.6667208848
 20
1050.5943146226
 30
0.0
 11
1286.6667208848
 21
851.0943146226
 31
0.0
  0
LINE
  5
221
330
1F
100
AcDbEntity
  8
0
  6
Continuous
 62
     7
370
    15
100
AcDbLine
 10
1286.6667208848
 20
1050.5943146226
 30
0.0
 11
1285.1667208848
 21
1050.5943146226
 31
0.0
  0
LINE
  5
222
330
1F
100
AcDbEntity
  8
0
  6
Continuous
 62
     7
370
    15
100
AcDbLine
 10
1286.6667208848
 20
851.0943146226
 30
0.0
 11
1285.1667208848
 21
851.0943146226
 31
0.0
  0
LINE
  5
223
330
1F
100
AcDbEntity
  8
0
  6
Continuous
 62
     7
370
    15
100
AcDbLine
 10
1255.1667208848
 20
1050.5943146226
 30
0.0
 11
1255.1667208848
 21
851.0943146226
 31
0.0
  0
LINE
  5
224
330
1F
100
AcDbEntity
  8
0
  6
Continuous
 62
     7
370
    15
100
AcDbLine
 10
1253.6667208848
 20
1050.5943146226
 30
0.0
 11
1253.6667208848
 21
851.0943146226
 31
0.0
  0
LINE
  5
225
330
1F
100
AcDbEntity
  8
0
  6
Continuous
 62
     7
370
    15
100
AcDbLine
 10
1255.1667208848
 20
851.0943146226
 30
0.0
 11
1253.6667208848
 21
851.0943146226
 31
0.0
  0
LINE
  5
226
330
1F
100
AcDbEntity
  8
0
  6
Continuous
 62
     7
370
    15
100
AcDbLine
 10
1255.1667208848
 20
1050.5943146226
 30
0.0
 11
1253.6667208848
 21
1050.5943146226
 31
0.0
  0
LINE
  5
227
330
1F
100
AcDbEntity
  8
0
  6
Continuous
 62
     7
370
    15
100
AcDbLine
 10
1253.6667208848
 20
843.7752659463
 30
0.0
 11
1253.6667208848
 21
838.413363299
 31
0.0
  0
LINE
  5
228
330
1F
100
AcDbEntity
  8
0
  6
Continuous
 62
     7
370
    15
100
AcDbLine
 10
1240.9167208848
 20
940.3443146226
 30
0.0
 11
1240.9167208848
 21
941.8443146226
 31
0.0
  0
LINE
  5
229
330
1F
100
AcDbEntity
  8
0
  6
Continuous
 62
     7
370
    15
100
AcDbLine
 10
1834.9167208848
 20
941.8443146226
 30
0.0
 11
1240.9167208848
 21
941.8443146226
 31
0.0
  0
LINE
  5
22A
330
1F
100
AcDbEntity
  8
0
  6
Continuous
 62
     7
370
    15
100
AcDbLine
 10
1834.9167208848
 20
940.3443146226
 30
0.0
 11
1834.9167208848
 21
941.8443146226
 31
0.0
  0
LINE
  5
22B
330
1F
100
AcDbEntity
  8
0
  6
Continuous
 62
     7
370
    15
100
AcDbLine
 10
1834.9167208848
 20
940.3443146226
 30
0.0
 11
1240.9167208848
 21
940.3443146226
 31
0.0
  0
LINE
  5
22C
330
1F
100
AcDbEntity
  8
0
  6
Continuous
 62
     7
370
    15
100
AcDbLine
 10
1834.9167208848
 20
951.8443146226
 30
0.0
 11
1240.9167208848
 21
951.8443146226
 31
0.0
  0
LINE
  5
22D
330
1F
100
AcDbEntity
  8
0
  6
Continuous
 62
     7
370
    15
100
AcDbLine
 10
1834.9167208848
 20
953.3443146226
 30
0.0
 11
1240.9167208848
 21
953.3443146226
 31
0.0
  0
LINE
  5
22E
330
1F
100
AcDbEntity
  8
0
  6
Continuous
 62
     7
370
    15
100
AcDbLine
 10
1834.9167208848
 20
951.8443146226
 30
0.0
 11
1834.9167208848
 21
953.3443146226
 31
0.0
  0
LINE
  5
22F
330
1F
100
AcDbEntity
  8
0
  6
Continuous
 62
     7
370
    15
100
AcDbLine
 10
1240.9167208848
 20
951.8443146226
 30
0.0
 11
1240.9167208848
 21
953.3443146226
 31
0.0
  0
LINE
  5
230
330
1F
100
AcDbEntity
  8
0
  6
Continuous
 62
     7
370
    15
100
AcDbLine
 10
1240.9167208848
 20
963.3443146226
 30
0.0
 11
1240.9167208848
 21
964.8443146226
 31
0.0
  0
LINE
  5
231
330
1F
100
AcDbEntity
  8
0
  6
Continuous
 62
     7
370
    15
100
AcDbLine
 10
1834.9167208848
 20
963.3443146226
 30
0.0
 11
1834.9167208848
 21
964.8443146226
 31
0.0
  0
LINE
  5
232
330
1F
100
AcDbEntity
  8
0
  6
Continuous
 62
     7
370
    15
100
AcDbLine
 10
1834.9167208848
 20
963.3443146226
 30
0.0
 11
1240.9167208848
 21
963.3443146226
 31
0.0
  0
LINE
  5
233
330
1F
100
AcDbEntity
  8
0
  6
Continuous
 62
     7
370
    15
100
AcDbLine
 10
1834.9167208848
 20
964.8443146226
 30
0.0
 11
1240.9167208848
 21
964.8443146226
 31
0.0
  0
LINE
  5
234
330
1F
100
AcDbEntity
  8
0
  6
Continuous
 62
     7
370
    15
100
AcDbLine
 10
1834.9167208848
 20
974.8443146226
 30
0.0
 11
1240.9167208848
 21
974.8443146226
 31
0.0
  0
LINE
  5
235
330
1F
100
AcDbEntity
  8
0
  6
Continuous
 62
     7
370
    15
100
AcDbLine
 10
1834.9167208848
 20
976.3443146226
 30
0.0
 11
1240.9167208848
 21
976.3443146226
 31
0.0
  0
LINE
  5
236
330
1F
100
AcDbEntity
  8
0
  6
Continuous
 62
     7
370
    15
100
AcDbLine
 10
1240.9167208848
 20
974.8443146226
 30
0.0
 11
1240.9167208848
 21
976.3443146226
 31
0.0
  0
LINE
  5
237
330
1F
100
AcDbEntity
  8
0
  6
Continuous
 62
     7
370
    15
100
AcDbLine
 10
1834.9167208848
 20
974.8443146226
 30
0.0
 11
1834.9167208848
 21
976.3443146226
 31
0.0
  0
LINE
  5
238
330
1F
100
AcDbEntity
  8
0
  6
Continuous
 62
     7
370
    15
100
AcDbLine
 10
1240.9167208848
 20
986.3443146226
 30
0.0
 11
1240.9167208848
 21
987.8443146226
 31
0.0
  0
LINE
  5
239
330
1F
100
AcDbEntity
  8
0
  6
Continuous
 62
     7
370
    15
100
AcDbLine
 10
1834.9167208848
 20
986.3443146226
 30
0.0
 11
1834.9167208848
 21
987.8443146226
 31
0.0
  0
LINE
  5
23A
330
1F
100
AcDbEntity
  8
0
  6
Continuous
 62
     7
370
    15
100
AcDbLine
 10
1834.9167208848
 20
987.8443146226
 30
0.0
 11
1240.9167208848
 21
987.8443146226
 31
0.0
  0
LINE
  5
23B
330
1F
100
AcDbEntity
  8
0
  6
Continuous
 62
     7
370
    15
100
AcDbLine
 10
1834.9167208848
 20
986.3443146226
 30
0.0
 11
1240.9167208848
 21
986.3443146226
 31
0.0
  0
LINE
  5
23C
330
1F
100
AcDbEntity
  8
0
  6
Continuous
 62
     7
370
    15
100
AcDbLine
 10
1240.9167208848
 20
997.8443146226
 30
0.0
 11
1240.9167208848
 21
999.3443146226
 31
0.0
  0
LINE
  5
23D
330
1F
100
AcDbEntity
  8
0
  6
Continuous
 62
     7
370
    15
100
AcDbLine
 10
1834.9167208848
 20
999.3443146226
 30
0.0
 11
1240.9167208848
 21
999.3443146226
 31
0.0
  0
LINE
  5
23E
330
1F
100
AcDbEntity
  8
0
  6
Continuous
 62
     7
370
    15
100
AcDbLine
 10
1834.9167208848
 20
997.8443146226
 30
0.0
 11
1834.9167208848
 21
999.3443146226
 31
0.0
  0
LINE
  5
23F
330
1F
100
AcDbEntity
  8
0
  6
Continuous
 62
     7
370
    15
100
AcDbLine
 10
1834.9167208848
 20
997.8443146226
 30
0.0
 11
1240.9167208848
 21
997.8443146226
 31
0.0
  0
LINE
  5
240
330
1F
100
AcDbEntity
  8
0
  6
Continuous
 62
     7
370
    15
100
AcDbLine
 10
1834.9167208848
 20
1009.3443146226
 30
0.0
 11
1834.9167208848
 21
1010.8443146226
 31
0.0
  0
LINE
  5
241
330
1F
100
AcDbEntity
  8
0
  6
Continuous
 62
     7
370
    15
100
AcDbLine
 10
1834.9167208848
 20
1009.3443146226
 30
0.0
 11
1240.9167208848
 21
1009.3443146226
 31
0.0
  0
LINE
  5
242
330
1F
100
AcDbEntity
  8
0
  6
Continuous
 62
     7
370
    15
100
AcDbLine
 10
1834.9167208848
 20
1010.8443146226
 30
0.0
 11
1240.9167208848
 21
1010.8443146226
 31
0.0
  0
LINE
  5
243
330
1F
100
AcDbEntity
  8
0
  6
Continuous
 62
     7
370
    15
100
AcDbLine
 10
1240.9167208848
 20
1009.3443146226
 30
0.0
 11
1240.9167208848
 21
1010.8443146226
 31
0.0
  0
LINE
  5
244
330
1F
100
AcDbEntity
  8
0
  6
Continuous
 62
     7
370
    15
100
AcDbLine
 10
1834.9167208848
 20
1020.8443146226
 30
0.0
 11
1834.9167208848
 21
1022.3443146226
 31
0.0
  0
LINE
  5
245
330
1F
100
AcDbEntity
  8
0
  6
Continuous
 62
     7
370
    15
100
AcDbLine
 10
1834.9167208848
 20
1020.8443146226
 30
0.0
 11
1240.9167208848
 21
1020.8443146226
 31
0.0
  0
LINE
  5
246
330
1F
100
AcDbEntity
  8
0
  6
Continuous
 62
     7
370
    15
100
AcDbLine
 10
1834.9167208848
 20
1022.3443146226
 30
0.0
 11
1240.9167208848
 21
1022.3443146226
 31
0.0
  0
LINE
  5
247
330
1F
100
AcDbEntity
  8
0
  6
Continuous
 62
     7
370
    15
100
AcDbLine
 10
1240.9167208848
 20
1020.8443146226
 30
0.0
 11
1240.9167208848
 21
1022.3443146226
 31
0.0
  0
LINE
  5
248
330
1F
100
AcDbEntity
  8
0
  6
Continuous
 62
     7
370
    15
100
AcDbLine
 10
1834.9167208848
 20
1032.3443146226
 30
0.0
 11
1240.9167208848
 21
1032.3443146226
 31
0.0
  0
LINE
  5
249
330
1F
100
AcDbEntity
  8
0
  6
Continuous
 62
     7
370
    15
100
AcDbLine
 10
1240.9167208848
 20
1032.3443146226
 30
0.0
 11
1240.9167208848
 21
1033.8443146226
 31
0.0
  0
LINE
  5
24A
330
1F
100
AcDbEntity
  8
0
  6
Continuous
 62
     7
370
    15
100
AcDbLine
 10
1834.9167208848
 20
1032.3443146226
 30
0.0
 11
1834.9167208848
 21
1033.8443146226
 31
0.0
  0
LINE
  5
24B
330
1F
100
AcDbEntity
  8
0
  6
Continuous
 62
     7
370
    15
100
AcDbLine
 10
1834.9167208848
 20
1033.8443146226
 30
0.0
 11
1240.9167208848
 21
1033.8443146226
 31
0.0
  0
LINE
  5
24C
330
1F
100
AcDbEntity
  8
0
  6
Continuous
 62
     7
370
    15
100
AcDbLine
 10
1240.9167208848
 20
1043.8443146226
 30
0.0
 11
1240.9167208848
 21
1045.3443146226
 31
0.0
  0
LINE
  5
24D
330
1F
100
AcDbEntity
  8
0
  6
Continuous
 62
     7
370
    15
100
AcDbLine
 10
1834.9167208848
 20
1043.8443146226
 30
0.0
 11
1834.9167208848
 21
1045.3443146226
 31
0.0
  0
LINE
  5
24E
330
1F
100
AcDbEntity
  8
0
  6
Continuous
 62
     7
370
    15
100
AcDbLine
 10
1834.9167208848
 20
1043.8443146226
 30
0.0
 11
1240.9167208848
 21
1043.8443146226
 31
0.0
  0
LINE
  5
24F
330
1F
100
AcDbEntity
  8
0
  6
Continuous
 62
     7
370
    15
100
AcDbLine
 10
1834.9167208848
 20
1045.3443146226
 30
0.0
 11
1240.9167208848
 21
1045.3443146226
 31
0.0
  0
LINE
  5
250
330
1F
100
AcDbEntity
  8
0
  6
Continuous
 62
     7
370
    15
100
AcDbLine
 10
1240.9167208848
 20
928.8443146226
 30
0.0
 11
1240.9167208848
 21
930.3443146226
 31
0.0
  0
LINE
  5
251
330
1F
100
AcDbEntity
  8
0
  6
Continuous
 62
     7
370
    15
100
AcDbLine
 10
1834.9167208848
 20
930.3443146226
 30
0.0
 11
1240.9167208848
 21
930.3443146226
 31
0.0
  0
LINE
  5
252
330
1F
100
AcDbEntity
  8
0
  6
Continuous
 62
     7
370
    15
100
AcDbLine
 10
1834.9167208848
 20
928.8443146226
 30
0.0
 11
1834.9167208848
 21
930.3443146226
 31
0.0
  0
LINE
  5
253
330
1F
100
AcDbEntity
  8
0
  6
Continuous
 62
     7
370
    15
100
AcDbLine
 10
1834.9167208848
 20
928.8443146226
 30
0.0
 11
1240.9167208848
 21
928.8443146226
 31
0.0
  0
LINE
  5
254
330
1F
100
AcDbEntity
  8
0
  6
Continuous
 62
     7
370
    15
100
AcDbLine
 10
1834.9167208848
 20
917.3443146226
 30
0.0
 11
1834.9167208848
 21
918.8443146226
 31
0.0
  0
LINE
  5
255
330
1F
100
AcDbEntity
  8
0
  6
Continuous
 62
     7
370
    15
100
AcDbLine
 10
1834.9167208848
 20
917.3443146226
 30
0.0
 11
1240.9167208848
 21
917.3443146226
 31
0.0
  0
LINE
  5
256
330
1F
100
AcDbEntity
  8
0
  6
Continuous
 62
     7
370
    15
100
AcDbLine
 10
1240.9167208848
 20
917.3443146226
 30
0.0
 11
1240.9167208848
 21
918.8443146226
 31
0.0
  0
LINE
  5
257
330
1F
100
AcDbEntity
  8
0
  6
Continuous
 62
     7
370
    15
100
AcDbLine
 10
1834.9167208848
 20
918.8443146226
 30
0.0
 11
1240.9167208848
 21
918.8443146226
 31
0.0
  0
LINE
  5
258
330
1F
100
AcDbEntity
  8
0
  6
Continuous
 62
     7
370
    15
100
AcDbLine
 10
1834.9167208848
 20
907.3443146226
 30
0.0
 11
1240.9167208848
 21
907.3443146226
 31
0.0
  0
LINE
  5
259
330
1F
100
AcDbEntity
  8
0
  6
Continuous
 62
     7
370
    15
100
AcDbLine
 10
1834.9167208848
 20
905.8443146226
 30
0.0
 11
1834.9167208848
 21
907.3443146226
 31
0.0
  0
LINE
  5
25A
330
1F
100
AcDbEntity
  8
0
  6
Continuous
 62
     7
370
    15
100
AcDbLine
 10
1834.9167208848
 20
905.8443146226
 30
0.0
 11
1240.9167208848
 21
905.8443146226
 31
0.0
  0
LINE
  5
25B
330
1F
100
AcDbEntity
  8
0
  6
Continuous
 62
     7
370
    15
100
AcDbLine
 10
1240.9167208848
 20
905.8443146226
 30
0.0
 11
1240.9167208848
 21
907.3443146226
 31
0.0
  0
LINE
  5
25C
330
1F
100
AcDbEntity
  8
0
  6
Continuous
 62
     7
370
    15
100
AcDbLine
 10
1834.9167208848
 20
895.8443146226
 30
0.0
 11
1240.9167208848
 21
895.8443146226
 31
0.0
  0
LINE
  5
25D
330
1F
100
AcDbEntity
  8
0
  6
Continuous
 62
     7
370
    15
100
AcDbLine
 10
1834.9167208848
 20
894.3443146226
 30
0.0
 11
1240.9167208848
 21
894.3443146226
 31
0.0
  0
LINE
  5
25E
330
1F
100
AcDbEntity
  8
0
  6
Continuous
 62
     7
370
    15
100
AcDbLine
 10
1240.9167208848
 20
894.3443146226
 30
0.0
 11
1240.9167208848
 21
895.8443146226
 31
0.0
  0
LINE
  5
25F
330
1F
100
AcDbEntity
  8
0
  6
Continuous
 62
     7
370
    15
100
AcDbLine
 10
1834.9167208848
 20
894.3443146226
 30
0.0
 11
1834.9167208848
 21
895.8443146226
 31
0.0
  0
LINE
  5
260
330
1F
100
AcDbEntity
  8
0
  6
Continuous
 62
     7
370
    15
100
AcDbLine
 10
1240.9167208848
 20
882.8443146226
 30
0.0
 11
1240.9167208848
 21
884.3443146226
 31
0.0
  0
LINE
  5
261
330
1F
100
AcDbEntity
  8
0
  6
Continuous
 62
     7
370
    15
100
AcDbLine
 10
1834.9167208848
 20
882.8443146226
 30
0.0
 11
1240.9167208848
 21
882.8443146226
 31
0.0
  0
LINE
  5
262
330
1F
100
AcDbEntity
  8
0
  6
Continuous
 62
     7
370
    15
100
AcDbLine
 10
1834.9167208848
 20
884.3443146226
 30
0.0
 11
1240.9167208848
 21
884.3443146226
 31
0.0
  0
LINE
  5
263
330
1F
100
AcDbEntity
  8
0
  6
Continuous
 62
     7
370
    15
100
AcDbLine
 10
1834.9167208848
 20
882.8443146226
 30
0.0
 11
1834.9167208848
 21
884.3443146226
 31
0.0
  0
LINE
  5
264
330
1F
100
AcDbEntity
  8
0
  6
Continuous
 62
     7
370
    15
100
AcDbLine
 10
1240.9167208848
 20
871.3443146226
 30
0.0
 11
1240.9167208848
 21
872.8443146226
 31
0.0
  0
LINE
  5
265
330
1F
100
AcDbEntity
  8
0
  6
Continuous
 62
     7
370
    15
100
AcDbLine
 10
1834.9167208848
 20
872.8443146226
 30
0.0
 11
1240.9167208848
 21
872.8443146226
 31
0.0
  0
LINE
  5
266
330
1F
100
AcDbEntity
  8
0
  6
Continuous
 62
     7
370
    15
100
AcDbLine
 10
1834.9167208848
 20
871.3443146226
 30
0.0
 11
1834.9167208848
 21
872.8443146226
 31
0.0
  0
LINE
  5
267
330
1F
100
AcDbEntity
  8
0
  6
Continuous
 62
     7
370
    15
100
AcDbLine
 10
1834.9167208848
 20
871.3443146226
 30
0.0
 11
1240.9167208848
 21
871.3443146226
 31
0.0
  0
LINE
  5
268
330
1F
100
AcDbEntity
  8
0
  6
Continuous
 62
     7
370
    15
100
AcDbLine
 10
1834.9167208848
 20
859.8443146226
 30
0.0
 11
1834.9167208848
 21
861.3443146226
 31
0.0
  0
LINE
  5
269
330
1F
100
AcDbEntity
  8
0
  6
Continuous
 62
     7
370
    15
100
AcDbLine
 10
1834.9167208848
 20
861.3443146226
 30
0.0
 11
1240.9167208848
 21
861.3443146226
 31
0.0
  0
LINE
  5
26A
330
1F
100
AcDbEntity
  8
0
  6
Continuous
 62
     7
370
    15
100
AcDbLine
 10
1834.9167208848
 20
859.8443146226
 30
0.0
 11
1240.9167208848
 21
859.8443146226
 31
0.0
  0
LINE
  5
26B
330
1F
100
AcDbEntity
  8
0
  6
Continuous
 62
     7
370
    15
100
AcDbLine
 10
1240.9167208848
 20
859.8443146226
 30
0.0
 11
1240.9167208848
 21
861.3443146226
 31
0.0
  0
LINE
  5
26C
330
1F
100
AcDbEntity
  8
0
  6
Continuous
 62
     7
370
    15
100
AcDbLine
 10
2631.5734621839
 20
619.5564079458
 30
0.0
 11
2629.7874885911
 21
621.3814250184
 31
0.0
  0
LINE
  5
26D
330
1F
100
AcDbEntity
  8
0
  6
Continuous
 62
     7
370
    15
100
AcDbLine
 10
2623.2597551096
 20
621.3814250184
 30
0.0
 11
2621.4737815168
 21
619.5564079458
 31
0.0
  0
LINE
  5
26E
330
1F
100
AcDbEntity
  8
0
  6
Continuous
 62
     7
370
    15
100
AcDbLine
 10
2648.1800607158
 20
620.8665584356
 30
0.0
 11
2646.394087123
 21
622.6915755082
 31
0.0
  0
LINE
  5
26F
330
1F
100
AcDbEntity
  8
0
  6
Continuous
 62
     7
370
    15
100
AcDbLine
 10
2639.8663536415
 20
622.6915755082
 30
0.0
 11
2638.0803800487
 21
620.8665584356
 31
0.0
  0
LINE
  5
270
330
1F
100
AcDbEntity
  8
0
  6
Continuous
 62
     7
370
    15
100
AcDbLine
 10
2605.0409185335
 20
626.7673847863
 30
0.0
 11
2603.2549449408
 21
628.5924018589
 31
0.0
  0
LINE
  5
271
330
1F
100
AcDbEntity
  8
0
  6
Continuous
 62
     7
370
    15
100
AcDbLine
 10
2596.7272114592
 20
628.5924018589
 30
0.0
 11
2594.9412378665
 21
626.7673847863
 31
0.0
  0
LINE
  5
272
330
1F
100
AcDbEntity
  8
0
  6
Continuous
 62
     7
370
    15
100
AcDbLine
 10
2621.6475170655
 20
628.0775352761
 30
0.0
 11
2619.8615434727
 21
629.9025523488
 31
0.0
  0
LINE
  5
273
330
1F
100
AcDbEntity
  8
0
  6
Continuous
 62
     7
370
    15
100
AcDbLine
 10
2613.3338099912
 20
629.9025523488
 30
0.0
 11
2611.5478363984
 21
628.0775352761
 31
0.0
  0
LINE
  5
274
330
1F
100
AcDbEntity
  8
0
  6
Continuous
 62
     7
370
    15
100
AcDbLine
 10
2578.5083748832
 20
633.9783616268
 30
0.0
 11
2576.7224012905
 21
635.8033786995
 31
0.0
  0
LINE
  5
275
330
1F
100
AcDbEntity
  8
0
  6
Continuous
 62
     7
370
    15
100
AcDbLine
 10
2570.1946678089
 20
635.8033786995
 30
0.0
 11
2568.4086942162
 21
633.9783616268
 31
0.0
  0
LINE
  5
276
330
1F
100
AcDbEntity
  8
0
  6
Continuous
 62
     7
370
    15
100
AcDbLine
 10
2595.1149734152
 20
635.2885121166
 30
0.0
 11
2593.3289998224
 21
637.1135291893
 31
0.0
  0
LINE
  5
277
330
1F
100
AcDbEntity
  8
0
  6
Continuous
 62
     7
370
    15
100
AcDbLine
 10
2586.8012663409
 20
637.1135291893
 30
0.0
 11
2585.0152927481
 21
635.2885121166
 31
0.0
  0
LINE
  5
278
330
1F
100
AcDbEntity
  8
0
  6
Continuous
 62
     7
370
    15
100
AcDbLine
 10
2551.9758312329
 20
641.1893384674
 30
0.0
 11
2550.1898576401
 21
643.01435554
 31
0.0
  0
LINE
  5
279
330
1F
100
AcDbEntity
  8
0
  6
Continuous
 62
     7
370
    15
100
AcDbLine
 10
2543.6621241586
 20
643.01435554
 30
0.0
 11
2541.8761505658
 21
641.1893384674
 31
0.0
  0
LINE
  5
27A
330
1F
100
AcDbEntity
  8
0
  6
Continuous
 62
     7
370
    15
100
AcDbLine
 10
2568.5824297648
 20
642.4994889572
 30
0.0
 11
2566.7964561721
 21
644.3245060298
 31
0.0
  0
LINE
  5
27B
330
1F
100
AcDbEntity
  8
0
  6
Continuous
 62
     7
370
    15
100
AcDbLine
 10
2560.2687226905
 20
644.3245060298
 30
0.0
 11
2558.4827490978
 21
642.4994889572
 31
0.0
  0
LINE
  5
27C
330
1F
100
AcDbEntity
  8
0
  6
Continuous
 62
     7
370
    15
100
AcDbLine
 10
2525.4432875826
 20
648.4003153079
 30
0.0
 11
2523.6573139898
 21
650.2253323805
 31
0.0
  0
LINE
  5
27D
330
1F
100
AcDbEntity
  8
0
  6
Continuous
 62
     7
370
    15
100
AcDbLine
 10
2517.1295805083
 20
650.2253323805
 30
0.0
 11
2515.3436069155
 21
648.4003153079
 31
0.0
  0
LINE
  5
27E
330
1F
100
AcDbEntity
  8
0
  6
Continuous
 62
     7
370
    15
100
AcDbLine
 10
2542.0498861145
 20
649.7104657977
 30
0.0
 11
2540.2639125218
 21
651.5354828703
 31
0.0
  0
LINE
  5
27F
330
1F
100
AcDbEntity
  8
0
  6
Continuous
 62
     7
370
    15
100
AcDbLine
 10
2533.7361790402
 20
651.5354828703
 30
0.0
 11
2531.9502054475
 21
649.7104657977
 31
0.0
  0
LINE
  5
280
330
1F
100
AcDbEntity
  8
0
  6
Continuous
 62
     7
370
    15
100
AcDbLine
 10
2498.9107439322
 20
655.6112921484
 30
0.0
 11
2497.1247703395
 21
657.436309221
 31
0.0
  0
LINE
  5
281
330
1F
100
AcDbEntity
  8
0
  6
Continuous
 62
     7
370
    15
100
AcDbLine
 10
2490.5970368579
 20
657.436309221
 30
0.0
 11
2488.8110632652
 21
655.6112921484
 31
0.0
  0
LINE
  5
282
330
1F
100
AcDbEntity
  8
0
  6
Continuous
 62
     7
370
    15
100
AcDbLine
 10
2515.5173424642
 20
656.9214426382
 30
0.0
 11
2513.7313688714
 21
658.7464597108
 31
0.0
  0
LINE
  5
283
330
1F
100
AcDbEntity
  8
0
  6
Continuous
 62
     7
370
    15
100
AcDbLine
 10
2507.2036353899
 20
658.7464597108
 30
0.0
 11
2505.4176617971
 21
656.9214426382
 31
0.0
  0
LINE
  5
284
330
1F
100
AcDbEntity
  8
0
  6
Continuous
 62
     7
370
    15
100
AcDbLine
 10
2472.3782002819
 20
662.8222689889
 30
0.0
 11
2470.5922266892
 21
664.6472860615
 31
0.0
  0
LINE
  5
285
330
1F
100
AcDbEntity
  8
0
  6
Continuous
 62
     7
370
    15
100
AcDbLine
 10
2464.0644932076
 20
664.6472860615
 30
0.0
 11
2462.2785196149
 21
662.8222689889
 31
0.0
  0
LINE
  5
286
330
1F
100
AcDbEntity
  8
0
  6
Continuous
 62
     7
370
    15
100
AcDbLine
 10
2488.9847988139
 20
664.1324194787
 30
0.0
 11
2487.1988252211
 21
665.9574365513
 31
0.0
  0
LINE
  5
287
330
1F
100
AcDbEntity
  8
0
  6
Continuous
 62
     7
370
    15
100
AcDbLine
 10
2480.6710917396
 20
665.9574365513
 30
0.0
 11
2478.8851181468
 21
664.1324194787
 31
0.0
  0
LINE
  5
288
330
1F
100
AcDbEntity
  8
0
  6
Continuous
 62
     7
370
    15
100
AcDbLine
 10
2445.8456566316
 20
670.0332458294
 30
0.0
 11
2444.0596830388
 21
671.8582629021
 31
0.0
  0
LINE
  5
289
330
1F
100
AcDbEntity
  8
0
  6
Continuous
 62
     7
370
    15
100
AcDbLine
 10
2437.5319495573
 20
671.8582629021
 30
0.0
 11
2435.7459759645
 21
670.0332458294
 31
0.0
  0
LINE
  5
28A
330
1F
100
AcDbEntity
  8
0
  6
Continuous
 62
     7
370
    15
100
AcDbLine
 10
2462.4522551635
 20
671.3433963192
 30
0.0
 11
2460.6662815708
 21
673.1684133919
 31
0.0
  0
LINE
  5
28B
330
1F
100
AcDbEntity
  8
0
  6
Continuous
 62
     7
370
    15
100
AcDbLine
 10
2454.1385480892
 20
673.1684133919
 30
0.0
 11
2452.3525744965
 21
671.3433963192
 31
0.0
  0
LINE
  5
28C
330
1F
100
AcDbEntity
  8
0
  6
Continuous
 62
     7
370
    15
100
AcDbLine
 10
2419.3131129813
 20
677.2442226699
 30
0.0
 11
2417.5271393885
 21
679.0692397426
 31
0.0
  0
LINE
  5
28D
330
1F
100
AcDbEntity
  8
0
  6
Continuous
 62
     7
370
    15
100
AcDbLine
 10
2410.999405907
 20
679.0692397426
 30
0.0
 11
2409.2134323142
 21
677.2442226699
 31
0.0
  0
LINE
  5
28E
330
1F
100
AcDbEntity
  8
0
  6
Continuous
 62
     7
370
    15
100
AcDbLine
 10
2435.9197115132
 20
678.5543731598
 30
0.0
 11
2434.1337379205
 21
680.3793902324
 31
0.0
  0
LINE
  5
28F
330
1F
100
AcDbEntity
  8
0
  6
Continuous
 62
     7
370
    15
100
AcDbLine
 10
2427.6060044389
 20
680.3793902324
 30
0.0
 11
2425.8200308462
 21
678.5543731598
 31
0.0
  0
LINE
  5
290
330
1F
100
AcDbEntity
  8
0
  6
Continuous
 62
     7
370
    15
100
AcDbLine
 10
2392.780569331
 20
684.4551995105
 30
0.0
 11
2390.9945957382
 21
686.2802165831
 31
0.0
  0
LINE
  5
291
330
1F
100
AcDbEntity
  8
0
  6
Continuous
 62
     7
370
    15
100
AcDbLine
 10
2384.4668622567
 20
686.2802165831
 30
0.0
 11
2382.6808886639
 21
684.4551995105
 31
0.0
  0
LINE
  5
292
330
1F
100
AcDbEntity
  8
0
  6
Continuous
 62
     7
370
    15
100
AcDbLine
 10
2409.3871678629
 20
685.7653500003
 30
0.0
 11
2407.6011942701
 21
687.5903670729
 31
0.0
  0
LINE
  5
293
330
1F
100
AcDbEntity
  8
0
  6
Continuous
 62
     7
370
    15
100
AcDbLine
 10
2401.0734607886
 20
687.5903670729
 30
0.0
 11
2399.2874871958
 21
685.7653500003
 31
0.0
  0
LINE
  5
294
330
1F
100
AcDbEntity
  8
0
  6
Continuous
 62
     7
370
    15
100
AcDbLine
 10
2366.2480256806
 20
691.666176351
 30
0.0
 11
2364.4620520879
 21
693.4911934236
 31
0.0
  0
LINE
  5
295
330
1F
100
AcDbEntity
  8
0
  6
Continuous
 62
     7
370
    15
100
AcDbLine
 10
2357.9343186063
 20
693.4911934236
 30
0.0
 11
2356.1483450136
 21
691.666176351
 31
0.0
  0
LINE
  5
296
330
1F
100
AcDbEntity
  8
0
  6
Continuous
 62
     7
370
    15
100
AcDbLine
 10
2382.8546242126
 20
692.9763268408
 30
0.0
 11
2381.0686506198
 21
694.8013439134
 31
0.0
  0
LINE
  5
297
330
1F
100
AcDbEntity
  8
0
  6
Continuous
 62
     7
370
    15
100
AcDbLine
 10
2374.5409171383
 20
694.8013439134
 30
0.0
 11
2372.7549435455
 21
692.9763268408
 31
0.0
  0
LINE
  5
298
330
1F
100
AcDbEntity
  8
0
  6
Continuous
 62
     7
370
    15
100
AcDbLine
 10
2339.7154820303
 20
698.8771531915
 30
0.0
 11
2337.9295084375
 21
700.7021702641
 31
0.0
  0
LINE
  5
299
330
1F
100
AcDbEntity
  8
0
  6
Continuous
 62
     7
370
    15
100
AcDbLine
 10
2331.401774956
 20
700.7021702641
 30
0.0
 11
2329.6158013633
 21
698.8771531915
 31
0.0
  0
LINE
  5
29A
330
1F
100
AcDbEntity
  8
0
  6
Continuous
 62
     7
370
    15
100
AcDbLine
 10
2356.3220805623
 20
700.1873036813
 30
0.0
 11
2354.5361069695
 21
702.0123207539
 31
0.0
  0
LINE
  5
29B
330
1F
100
AcDbEntity
  8
0
  6
Continuous
 62
     7
370
    15
100
AcDbLine
 10
2348.008373488
 20
702.0123207539
 30
0.0
 11
2346.2223998952
 21
700.1873036813
 31
0.0
  0
LINE
  5
29C
330
1F
100
AcDbEntity
  8
0
  6
Continuous
 62
     7
370
    15
100
AcDbLine
 10
2313.18293838
 20
706.088130032
 30
0.0
 11
2311.3969647872
 21
707.9131471046
 31
0.0
  0
LINE
  5
29D
330
1F
100
AcDbEntity
  8
0
  6
Continuous
 62
     7
370
    15
100
AcDbLine
 10
2304.8692313057
 20
707.9131471046
 30
0.0
 11
2303.0832577129
 21
706.088130032
 31
0.0
  0
LINE
  5
29E
330
1F
100
AcDbEntity
  8
0
  6
Continuous
 62
     7
370
    15
100
AcDbLine
 10
2329.7895369119
 20
707.3982805218
 30
0.0
 11
2328.0035633192
 21
709.2232975945
 31
0.0
  0
LINE
  5
29F
330
1F
100
AcDbEntity
  8
0
  6
Continuous
 62
     7
370
    15
100
AcDbLine
 10
2321.4758298376
 20
709.2232975945
 30
0.0
 11
2319.6898562449
 21
707.3982805218
 31
0.0
  0
LINE
  5
2A0
330
1F
100
AcDbEntity
  8
0
  6
Continuous
 62
     7
370
    15
100
AcDbLine
 10
2286.6503947297
 20
713.2991068725
 30
0.0
 11
2284.8644211369
 21
715.1241239452
 31
0.0
  0
LINE
  5
2A1
330
1F
100
AcDbEntity
  8
0
  6
Continuous
 62
     7
370
    15
100
AcDbLine
 10
2278.3366876554
 20
715.1241239452
 30
0.0
 11
2276.5507140626
 21
713.2991068725
 31
0.0
  0
LINE
  5
2A2
330
1F
100
AcDbEntity
  8
0
  6
Continuous
 62
     7
370
    15
100
AcDbLine
 10
2303.2569932616
 20
714.6092573623
 30
0.0
 11
2301.4710196688
 21
716.434274435
 31
0.0
  0
LINE
  5
2A3
330
1F
100
AcDbEntity
  8
0
  6
Continuous
 62
     7
370
    15
100
AcDbLine
 10
2294.9432861873
 20
716.434274435
 30
0.0
 11
2293.1573125946
 21
714.6092573623
 31
0.0
  0
LINE
  5
2A4
330
1F
100
AcDbEntity
  8
0
  6
Continuous
 62
     7
370
    15
100
AcDbLine
 10
2260.1178510793
 20
720.510083713
 30
0.0
 11
2258.3318774866
 21
722.3351007857
 31
0.0
  0
LINE
  5
2A5
330
1F
100
AcDbEntity
  8
0
  6
Continuous
 62
     7
370
    15
100
AcDbLine
 10
2251.804144005
 20
722.3351007857
 30
0.0
 11
2250.0181704123
 21
720.510083713
 31
0.0
  0
LINE
  5
2A6
330
1F
100
AcDbEntity
  8
0
  6
Continuous
 62
     7
370
    15
100
AcDbLine
 10
2276.7244496113
 20
721.8202342029
 30
0.0
 11
2274.9384760185
 21
723.6452512755
 31
0.0
  0
LINE
  5
2A7
330
1F
100
AcDbEntity
  8
0
  6
Continuous
 62
     7
370
    15
100
AcDbLine
 10
2268.410742537
 20
723.6452512755
 30
0.0
 11
2266.6247689442
 21
721.8202342029
 31
0.0
  0
LINE
  5
2A8
330
1F
100
AcDbEntity
  8
0
  6
Continuous
 62
     7
370
    15
100
AcDbLine
 10
2233.585307429
 20
727.7210605536
 30
0.0
 11
2231.7993338363
 21
729.5460776262
 31
0.0
  0
LINE
  5
2A9
330
1F
100
AcDbEntity
  8
0
  6
Continuous
 62
     7
370
    15
100
AcDbLine
 10
2225.2716003547
 20
729.5460776262
 30
0.0
 11
2223.485626762
 21
727.7210605536
 31
0.0
  0
LINE
  5
2AA
330
1F
100
AcDbEntity
  8
0
  6
Continuous
 62
     7
370
    15
100
AcDbLine
 10
2250.191905961
 20
729.0312110434
 30
0.0
 11
2248.4059323682
 21
730.856228116
 31
0.0
  0
LINE
  5
2AB
330
1F
100
AcDbEntity
  8
0
  6
Continuous
 62
     7
370
    15
100
AcDbLine
 10
2241.8781988867
 20
730.856228116
 30
0.0
 11
2240.0922252939
 21
729.0312110434
 31
0.0
  0
LINE
  5
2AC
330
1F
100
AcDbEntity
  8
0
  6
Continuous
 62
     7
370
    15
100
AcDbLine
 10
2207.0527637787
 20
734.9320373941
 30
0.0
 11
2205.2667901859
 21
736.7570544667
 31
0.0
  0
LINE
  5
2AD
330
1F
100
AcDbEntity
  8
0
  6
Continuous
 62
     7
370
    15
100
AcDbLine
 10
2198.7390567044
 20
736.7570544667
 30
0.0
 11
2196.9530831116
 21
734.9320373941
 31
0.0
  0
LINE
  5
2AE
330
1F
100
AcDbEntity
  8
0
  6
Continuous
 62
     7
370
    15
100
AcDbLine
 10
2223.6593623106
 20
736.2421878839
 30
0.0
 11
2221.8733887179
 21
738.0672049565
 31
0.0
  0
LINE
  5
2AF
330
1F
100
AcDbEntity
  8
0
  6
Continuous
 62
     7
370
    15
100
AcDbLine
 10
2215.3456552363
 20
738.0672049565
 30
0.0
 11
2213.5596816436
 21
736.2421878839
 31
0.0
  0
LINE
  5
2B0
330
1F
100
AcDbEntity
  8
0
  6
Continuous
 62
     7
370
    15
100
AcDbLine
 10
2180.5202201284
 20
742.1430142346
 30
0.0
 11
2178.7342465356
 21
743.9680313072
 31
0.0
  0
LINE
  5
2B1
330
1F
100
AcDbEntity
  8
0
  6
Continuous
 62
     7
370
    15
100
AcDbLine
 10
2172.2065130541
 20
743.9680313072
 30
0.0
 11
2170.4205394613
 21
742.1430142346
 31
0.0
  0
LINE
  5
2B2
330
1F
100
AcDbEntity
  8
0
  6
Continuous
 62
     7
370
    15
100
AcDbLine
 10
2197.1268186603
 20
743.4531647244
 30
0.0
 11
2195.3408450676
 21
745.278181797
 31
0.0
  0
LINE
  5
2B3
330
1F
100
AcDbEntity
  8
0
  6
Continuous
 62
     7
370
    15
100
AcDbLine
 10
2188.813111586
 20
745.278181797
 30
0.0
 11
2187.0271379933
 21
743.4531647244
 31
0.0
  0
LINE
  5
2B4
330
1F
100
AcDbEntity
  8
0
  6
Continuous
 62
     7
370
    15
100
AcDbLine
 10
2153.987676478
 20
749.3539910751
 30
0.0
 11
2152.2017028853
 21
751.1790081477
 31
0.0
  0
LINE
  5
2B5
330
1F
100
AcDbEntity
  8
0
  6
Continuous
 62
     7
370
    15
100
AcDbLine
 10
2145.6739694038
 20
751.1790081477
 30
0.0
 11
2143.887995811
 21
749.3539910751
 31
0.0
  0
LINE
  5
2B6
330
1F
100
AcDbEntity
  8
0
  6
Continuous
 62
     7
370
    15
100
AcDbLine
 10
2170.59427501
 20
750.6641415649
 30
0.0
 11
2168.8083014172
 21
752.4891586376
 31
0.0
  0
LINE
  5
2B7
330
1F
100
AcDbEntity
  8
0
  6
Continuous
 62
     7
370
    15
100
AcDbLine
 10
2162.2805679357
 20
752.4891586376
 30
0.0
 11
2160.4945943429
 21
750.6641415649
 31
0.0
  0
LINE
  5
2B8
330
1F
100
AcDbEntity
  8
0
  6
Continuous
 62
     7
370
    15
100
AcDbLine
 10
2144.0617313597
 20
757.8751184054
 30
0.0
 11
2142.2757577669
 21
759.7001354781
 31
0.0
  0
LINE
  5
2B9
330
1F
100
AcDbEntity
  8
0
  6
Continuous
 62
     7
370
    15
100
AcDbLine
 10
2135.7480242854
 20
759.7001354781
 30
0.0
 11
2133.9620506926
 21
757.8751184054
 31
0.0
  0
LWPOLYLINE
  5
2BA
330
1F
100
AcDbEntity
  8
0
  6
Continuous
 62
     7
370
    15
100
AcDbPolyline
 90
       18
 70
   128
 43
0.0
 10
2638.0803800487
 20
620.8665584356
 10
2637.722894449
 20
620.4081905288
 10
2637.4811316993
 20
619.6888111047
 10
2637.5943219675
 20
618.9610661842
 10
2638.0553530928
 20
618.2706826569
 10
2638.8352567938
 20
617.6610398591
 10
2639.8850288529
 20
617.1704438898
 10
2641.1387082308
 20
616.8297206979
 10
2642.5175216414
 20
616.6602791749
 10
2643.9348331673
 20
616.6727659547
 10
2645.3015879127
 20
616.866396447
 10
2646.5319076504
 20
617.2290041359
 10
2647.5484868666
 20
617.7378050467
 10
2648.2874501503
 20
618.3608293469
 10
2648.7023657207
 20
619.0589301285
 10
2648.7671629066
 20
619.7882431518
 10
2648.4777702624
 20
620.5029429975
 10
2648.1800607158
 20
620.8665584356
  0
LWPOLYLINE
  5
2BB
330
1F
100
AcDbEntity
  8
0
  6
Continuous
 62
     7
370
    15
100
AcDbPolyline
 90
       18
 70
   128
 43
0.0
 10
2585.0152927481
 20
635.2885121166
 10
2584.6578071483
 20
634.8301442099
 10
2584.4160443987
 20
634.1107647858
 10
2584.5292346669
 20
633.3830198652
 10
2584.9902657921
 20
632.692636338
 10
2585.7701694932
 20
632.0829935401
 10
2586.8199415523
 20
631.5923975708
 10
2588.0736209302
 20
631.251674379
 10
2589.4524343408
 20
631.0822328559
 10
2590.8697458666
 20
631.0947196357
 10
2592.2365006121
 20
631.288350128
 10
2593.4668203498
 20
631.6509578169
 10
2594.483399566
 20
632.1597587277
 10
2595.2223628497
 20
632.782783028
 10
2595.6372784201
 20
633.4808838095
 10
2595.7020756059
 20
634.2101968329
 10
2595.4126829618
 20
634.9248966785
 10
2595.1149734152
 20
635.2885121166
  0
LWPOLYLINE
  5
2BC
330
1F
100
AcDbEntity
  8
0
  6
Continuous
 62
     7
370
    15
100
AcDbPolyline
 90
       18
 70
   128
 43
0.0
 10
2531.9502054475
 20
649.7104657977
 10
2531.5927198477
 20
649.2520978909
 10
2531.350957098
 20
648.5327184668
 10
2531.4641473662
 20
647.8049735462
 10
2531.9251784915
 20
647.114590019
 10
2532.7050821925
 20
646.5049472212
 10
2533.7548542516
 20
646.0143512518
 10
2535.0085336295
 20
645.67362806
 10
2536.3873470401
 20
645.504186537
 10
2537.804658566
 20
645.5166733168
 10
2539.1714133114
 20
645.7103038091
 10
2540.4017330492
 20
646.072911498
 10
2541.4183122653
 20
646.5817124088
 10
2542.157275549
 20
647.204736709
 10
2542.5721911194
 20
647.9028374905
 10
2542.6369883053
 20
648.6321505139
 10
2542.3475956612
 20
649.3468503596
 10
2542.0498861145
 20
649.7104657977
  0
LWPOLYLINE
  5
2BD
330
1F
100
AcDbEntity
  8
0
  6
Continuous
 62
     7
370
    15
100
AcDbPolyline
 90
       18
 70
   128
 43
0.0
 10
2478.8851181468
 20
664.1324194787
 10
2478.527632547
 20
663.6740515719
 10
2478.2858697974
 20
662.9546721478
 10
2478.3990600656
 20
662.2269272273
 10
2478.8600911908
 20
661.5365437
 10
2479.6399948919
 20
660.9269009022
 10
2480.689766951
 20
660.4363049329
 10
2481.9434463289
 20
660.0955817411
 10
2483.3222597395
 20
659.926140218
 10
2484.7395712653
 20
659.9386269978
 10
2486.1063260108
 20
660.1322574901
 10
2487.3366457485
 20
660.494865179
 10
2488.3532249647
 20
661.0036660898
 10
2489.0921882484
 20
661.62669039
 10
2489.5071038188
 20
662.3247911716
 10
2489.5719010047
 20
663.0541041949
 10
2489.2825083605
 20
663.7688040406
 10
2488.9847988139
 20
664.1324194787
  0
LWPOLYLINE
  5
2BE
330
1F
100
AcDbEntity
  8
0
  6
Continuous
 62
     7
370
    15
100
AcDbPolyline
 90
       18
 70
   128
 43
0.0
 10
2425.8200308462
 20
678.5543731598
 10
2425.4625452464
 20
678.096005253
 10
2425.2207824968
 20
677.3766258289
 10
2425.333972765
 20
676.6488809083
 10
2425.7950038902
 20
675.9584973811
 10
2426.5749075912
 20
675.3488545832
 10
2427.6246796504
 20
674.8582586139
 10
2428.8783590282
 20
674.5175354221
 10
2430.2571724388
 20
674.348093899
 10
2431.6744839647
 20
674.3605806788
 10
2433.0412387101
 20
674.5542111712
 10
2434.2715584479
 20
674.91681886
 10
2435.288137664
 20
675.4256197708
 10
2436.0271009477
 20
676.0486440711
 10
2436.4420165181
 20
676.7467448526
 10
2436.506813704
 20
677.476057876
 10
2436.2174210599
 20
678.1907577216
 10
2435.9197115132
 20
678.5543731598
  0
LWPOLYLINE
  5
2BF
330
1F
100
AcDbEntity
  8
0
  6
Continuous
 62
     7
370
    15
100
AcDbPolyline
 90
       18
 70
   128
 43
0.0
 10
2160.4945943429
 20
750.6641415649
 10
2160.1371087432
 20
750.2057736581
 10
2159.8953459935
 20
749.4863942341
 10
2160.0085362617
 20
748.7586493135
 10
2160.4695673869
 20
748.0682657863
 10
2161.249471088
 20
747.4586229884
 10
2162.2992431471
 20
746.9680270191
 10
2163.552922525
 20
746.6273038273
 10
2164.9317359356
 20
746.4578623042
 10
2166.3490474615
 20
746.470349084
 10
2167.7158022069
 20
746.6639795763
 10
2168.9461219446
 20
747.0265872652
 10
2169.9627011608
 20
747.535388176
 10
2170.7016644445
 20
748.1584124762
 10
2171.1165800149
 20
748.8565132578
 10
2171.1813772008
 20
749.5858262811
 10
2170.8919845566
 20
750.3005261268
 10
2170.59427501
 20
750.6641415649
  0
LWPOLYLINE
  5
2C0
330
1F
100
AcDbEntity
  8
0
  6
Continuous
 62
     7
370
    15
100
AcDbPolyline
 90
       18
 70
   128
 43
0.0
 10
2213.5596816436
 20
736.2421878839
 10
2213.2021960438
 20
735.7838199771
 10
2212.9604332942
 20
735.064440553
 10
2213.0736235624
 20
734.3366956325
 10
2213.5346546876
 20
733.6463121052
 10
2214.3145583887
 20
733.0366693074
 10
2215.3643304478
 20
732.546073338
 10
2216.6180098256
 20
732.2053501462
 10
2217.9968232363
 20
732.0359086232
 10
2219.4141347621
 20
732.048395403
 10
2220.7808895075
 20
732.2420258953
 10
2222.0112092453
 20
732.6046335842
 10
2223.0277884614
 20
733.113434495
 10
2223.7667517451
 20
733.7364587952
 10
2224.1816673155
 20
734.4345595768
 10
2224.2464645014
 20
735.1638726001
 10
2223.9570718573
 20
735.8785724458
 10
2223.6593623106
 20
736.2421878839
  0
LWPOLYLINE
  5
2C1
330
1F
100
AcDbEntity
  8
0
  6
Continuous
 62
     7
370
    15
100
AcDbPolyline
 90
       18
 70
   128
 43
0.0
 10
2266.6247689442
 20
721.8202342029
 10
2266.2672833445
 20
721.3618662961
 10
2266.0255205948
 20
720.642486872
 10
2266.138710863
 20
719.9147419514
 10
2266.5997419882
 20
719.2243584242
 10
2267.3796456893
 20
718.6147156263
 10
2268.4294177484
 20
718.124119657
 10
2269.6830971263
 20
717.7833964652
 10
2271.0619105369
 20
717.6139549422
 10
2272.4792220628
 20
717.6264417219
 10
2273.8459768082
 20
717.8200722143
 10
2275.0762965459
 20
718.1826799031
 10
2276.0928757621
 20
718.6914808139
 10
2276.8318390458
 20
719.3145051142
 10
2277.2467546162
 20
720.0126058957
 10
2277.3115518021
 20
720.7419189191
 10
2277.0221591579
 20
721.4566187647
 10
2276.7244496113
 20
721.8202342029
  0
LWPOLYLINE
  5
2C2
330
1F
100
AcDbEntity
  8
0
  6
Continuous
 62
     7
370
    15
100
AcDbPolyline
 90
       18
 70
   128
 43
0.0
 10
2319.6898562449
 20
707.3982805218
 10
2319.3323706451
 20
706.939912615
 10
2319.0906078955
 20
706.220533191
 10
2319.2037981637
 20
705.4927882704
 10
2319.6648292889
 20
704.8024047431
 10
2320.44473299
 20
704.1927619453
 10
2321.4945050491
 20
703.702165976
 10
2322.7481844269
 20
703.3614427842
 10
2324.1269978376
 20
703.1920012611
 10
2325.5443093634
 20
703.2044880409
 10
2326.9110641088
 20
703.3981185332
 10
2328.1413838466
 20
703.7607262221
 10
2329.1579630627
 20
704.2695271329
 10
2329.8969263464
 20
704.8925514331
 10
2330.3118419168
 20
705.5906522147
 10
2330.3766391027
 20
706.319965238
 10
2330.0872464586
 20
707.0346650837
 10
2329.7895369119
 20
707.3982805218
  0
LWPOLYLINE
  5
2C3
330
1F
100
AcDbEntity
  8
0
  6
Continuous
 62
     7
370
    15
100
AcDbPolyline
 90
       18
 70
   128
 43
0.0
 10
2372.7549435455
 20
692.9763268408
 10
2372.3974579457
 20
692.517958934
 10
2372.1556951961
 20
691.7985795099
 10
2372.2688854643
 20
691.0708345894
 10
2372.7299165895
 20
690.3804510621
 10
2373.5098202906
 20
689.7708082643
 10
2374.5595923497
 20
689.2802122949
 10
2375.8132717276
 20
688.9394891031
 10
2377.1920851382
 20
688.7700475801
 10
2378.6093966641
 20
688.7825343599
 10
2379.9761514095
 20
688.9761648522
 10
2381.2064711472
 20
689.3387725411
 10
2382.2230503634
 20
689.8475734519
 10
2382.9620136471
 20
690.4705977521
 10
2383.3769292175
 20
691.1686985337
 10
2383.4417264034
 20
691.898011557
 10
2383.1523337592
 20
692.6127114027
 10
2382.8546242126
 20
692.9763268408
  0
LWPOLYLINE
  5
2C4
330
1F
100
AcDbEntity
  8
0
  6
Continuous
 62
     7
370
    15
100
AcDbPolyline
 90
       18
 70
   128
 43
0.0
 10
2631.5734621839
 20
619.5564079458
 10
2631.8711717305
 20
619.1927925077
 10
2632.1605643746
 20
618.478092662
 10
2632.0957671888
 20
617.7487796387
 10
2631.6808516184
 20
617.0506788571
 10
2630.9418883347
 20
616.4276545569
 10
2629.9253091185
 20
615.9188536461
 10
2628.6949893808
 20
615.5562459572
 10
2627.3282346353
 20
615.3626154649
 10
2625.9109231095
 20
615.3501286851
 10
2624.5321096989
 20
615.5195702081
 10
2623.278430321
 20
615.8602933999
 10
2622.2286582619
 20
616.3508893693
 10
2621.4487545608
 20
616.9605321671
 10
2620.9877234356
 20
617.6509156944
 10
2620.8745331674
 20
618.3786606149
 10
2621.116295917
 20
619.098040039
 10
2621.4737815168
 20
619.5564079458
  0
LWPOLYLINE
  5
2C5
330
1F
100
AcDbEntity
  8
0
  6
Continuous
 62
     7
370
    15
100
AcDbPolyline
 90
       18
 70
   128
 43
0.0
 10
2578.5083748832
 20
633.9783616268
 10
2578.8060844298
 20
633.6147461887
 10
2579.095477074
 20
632.9000463431
 10
2579.0306798881
 20
632.1707333197
 10
2578.6157643177
 20
631.4726325381
 10
2577.876801034
 20
630.8496082379
 10
2576.8602218179
 20
630.3408073271
 10
2575.6299020801
 20
629.9781996382
 10
2574.2631473347
 20
629.7845691459
 10
2572.8458358088
 20
629.7720823661
 10
2571.4670223982
 20
629.9415238892
 10
2570.2133430203
 20
630.282247081
 10
2569.1635709612
 20
630.7728430503
 10
2568.3836672602
 20
631.3824858482
 10
2567.9226361349
 20
632.0728693754
 10
2567.8094458667
 20
632.800614296
 10
2568.0512086164
 20
633.5199937201
 10
2568.4086942162
 20
633.9783616268
  0
LWPOLYLINE
  5
2C6
330
1F
100
AcDbEntity
  8
0
  6
Continuous
 62
     7
370
    15
100
AcDbPolyline
 90
       18
 70
   128
 43
0.0
 10
2525.4432875826
 20
648.4003153079
 10
2525.7409971292
 20
648.0366998697
 10
2526.0303897734
 20
647.3220000241
 10
2525.9655925875
 20
646.5926870007
 10
2525.5506770171
 20
645.8945862192
 10
2524.8117137334
 20
645.271561919
 10
2523.7951345172
 20
644.7627610082
 10
2522.5648147795
 20
644.4001533193
 10
2521.198060034
 20
644.206522827
 10
2519.7807485082
 20
644.1940360472
 10
2518.4019350976
 20
644.3634775702
 10
2517.1482557197
 20
644.704200762
 10
2516.0984836606
 20
645.1947967314
 10
2515.3185799595
 20
645.8044395292
 10
2514.8575488343
 20
646.4948230564
 10
2514.7443585661
 20
647.222567977
 10
2514.9861213157
 20
647.9419474011
 10
2515.3436069155
 20
648.4003153079
  0
LWPOLYLINE
  5
2C7
330
1F
100
AcDbEntity
  8
0
  6
Continuous
 62
     7
370
    15
100
AcDbPolyline
 90
       18
 70
   128
 43
0.0
 10
2472.3782002819
 20
662.8222689889
 10
2472.6759098286
 20
662.4586535508
 10
2472.9653024727
 20
661.7439537051
 10
2472.9005052868
 20
661.0146406818
 10
2472.4855897164
 20
660.3165399002
 10
2471.7466264327
 20
659.6935156
 10
2470.7300472166
 20
659.1847146892
 10
2469.4997274788
 20
658.8221070003
 10
2468.1329727334
 20
658.628476508
 10
2466.7156612075
 20
658.6159897282
 10
2465.3368477969
 20
658.7854312512
 10
2464.0831684191
 20
659.126154443
 10
2463.0333963599
 20
659.6167504124
 10
2462.2534926589
 20
660.2263932102
 10
2461.7924615337
 20
660.9167767375
 10
2461.6792712655
 20
661.644521658
 10
2461.9210340151
 20
662.3639010821
 10
2462.2785196149
 20
662.8222689889
  0
LINE
  5
2C8
330
1F
100
AcDbEntity
  8
0
  6
Continuous
 62
     7
370
    15
100
AcDbLine
 10
2546.5520221245
 20
767.8052162417
 30
0.0
 11
2453.446292033
 21
676.9311693842
 31
0.0
  0
LINE
  5
2C9
330
1F
100
AcDbEntity
  8
0
  6
Continuous
 62
     7
370
    15
100
AcDbLine
 10
2453.446292033
 20
676.9311693842
 30
0.0
 11
2479.9788356833
 21
669.7201925437
 31
0.0
  0
LINE
  5
2CA
330
1F
100
AcDbEntity
  8
0
  6
Continuous
 62
     7
370
    15
100
AcDbLine
 10
2573.0845657748
 20
760.5942394011
 30
0.0
 11
2479.9788356833
 21
669.7201925437
 31
0.0
  0
LINE
  5
2CB
330
1F
100
AcDbEntity
  8
0
  6
Continuous
 62
     7
370
    15
100
AcDbLine
 10
2546.5520221245
 20
767.8052162417
 30
0.0
 11
2573.0845657748
 21
760.5942394011
 31
0.0
  0
LWPOLYLINE
  5
2CC
330
1F
100
AcDbEntity
  8
0
  6
Continuous
 62
     7
370
    15
100
AcDbPolyline
 90
       18
 70
   128
 43
0.0
 10
2419.3131129813
 20
677.2442226699
 10
2419.6108225279
 20
676.8806072318
 10
2419.9002151721
 20
676.1659073862
 10
2419.8354179862
 20
675.4365943628
 10
2419.4205024158
 20
674.7384935812
 10
2418.6815391321
 20
674.115469281
 10
2417.6649599159
 20
673.6066683702
 10
2416.4346401782
 20
673.2440606813
 10
2415.0678854328
 20
673.050430189
 10
2413.6505739069
 20
673.0379434092
 10
2412.2717604963
 20
673.2073849323
 10
2411.0180811184
 20
673.5481081241
 10
2409.9683090593
 20
674.0387040934
 10
2409.1884053582
 20
674.6483468913
 10
2408.727374233
 20
675.3387304185
 10
2408.6141839648
 20
676.0664753391
 10
2408.8559467144
 20
676.7858547632
 10
2409.2134323142
 20
677.2442226699
  0
LINE
  5
2CD
330
1F
100
AcDbEntity
  8
0
  6
Continuous
 62
     7
370
    15
100
AcDbLine
 10
2490.8336804588
 20
782.9482676067
 30
0.0
 11
2397.7279503673
 21
692.0742207493
 31
0.0
  0
LINE
  5
2CE
330
1F
100
AcDbEntity
  8
0
  6
Continuous
 62
     7
370
    15
100
AcDbLine
 10
2397.7279503673
 20
692.0742207493
 30
0.0
 11
2424.2604940176
 21
684.8632439088
 31
0.0
  0
LINE
  5
2CF
330
1F
100
AcDbEntity
  8
0
  6
Continuous
 62
     7
370
    15
100
AcDbLine
 10
2517.3662241092
 20
775.7372907662
 30
0.0
 11
2424.2604940176
 21
684.8632439088
 31
0.0
  0
LINE
  5
2D0
330
1F
100
AcDbEntity
  8
0
  6
Continuous
 62
     7
370
    15
100
AcDbLine
 10
2490.8336804588
 20
782.9482676067
 30
0.0
 11
2517.3662241092
 21
775.7372907662
 31
0.0
  0
LWPOLYLINE
  5
2D1
330
1F
100
AcDbEntity
  8
0
  6
Continuous
 62
     7
370
    15
100
AcDbPolyline
 90
       18
 70
   128
 43
0.0
 10
2180.5202201284
 20
742.1430142346
 10
2180.817929675
 20
741.7793987965
 10
2181.1073223192
 20
741.0646989508
 10
2181.0425251333
 20
740.3353859275
 10
2180.6276095629
 20
739.6372851459
 10
2179.8886462792
 20
739.0142608457
 10
2178.872067063
 20
738.5054599349
 10
2177.6417473253
 20
738.142852246
 10
2176.2749925799
 20
737.9492217537
 10
2174.857681054
 20
737.9367349739
 10
2173.4788676434
 20
738.1061764969
 10
2172.2251882655
 20
738.4468996887
 10
2171.1754162064
 20
738.9374956581
 10
2170.3955125053
 20
739.5471384559
 10
2169.9344813801
 20
740.2375219832
 10
2169.8212911119
 20
740.9652669037
 10
2170.0630538615
 20
741.6846463278
 10
2170.4205394613
 20
742.1430142346
  0
LWPOLYLINE
  5
2D2
330
1F
100
AcDbEntity
  8
0
  6
Continuous
 62
     7
370
    15
100
AcDbPolyline
 90
       18
 70
   128
 43
0.0
 10
2233.585307429
 20
727.7210605536
 10
2233.8830169757
 20
727.3574451154
 10
2234.1724096198
 20
726.6427452698
 10
2234.1076124339
 20
725.9134322464
 10
2233.6926968635
 20
725.2153314649
 10
2232.9537335798
 20
724.5923071646
 10
2231.9371543637
 20
724.0835062539
 10
2230.7068346259
 20
723.720898565
 10
2229.3400798805
 20
723.5272680727
 10
2227.9227683546
 20
723.5147812929
 10
2226.543954944
 20
723.6842228159
 10
2225.2902755661
 20
724.0249460077
 10
2224.240503507
 20
724.515541977
 10
2223.460599806
 20
725.1251847749
 10
2222.9995686808
 20
725.8155683021
 10
2222.8863784125
 20
726.5433132227
 10
2223.1281411622
 20
727.2626926468
 10
2223.485626762
 20
727.7210605536
  0
LWPOLYLINE
  5
2D3
330
1F
100
AcDbEntity
  8
0
  6
Continuous
 62
     7
370
    15
100
AcDbPolyline
 90
       18
 70
   128
 43
0.0
 10
2286.6503947297
 20
713.2991068725
 10
2286.9481042763
 20
712.9354914344
 10
2287.2374969204
 20
712.2207915887
 10
2287.1726997346
 20
711.4914785654
 10
2286.7577841642
 20
710.7933777838
 10
2286.0188208805
 20
710.1703534836
 10
2285.0022416643
 20
709.6615525728
 10
2283.7719219266
 20
709.2989448839
 10
2282.4051671811
 20
709.1053143916
 10
2280.9878556553
 20
709.0928276118
 10
2279.6090422447
 20
709.2622691349
 10
2278.3553628668
 20
709.6029923267
 10
2277.3055908077
 20
710.093588296
 10
2276.5256871066
 20
710.7032310939
 10
2276.0646559814
 20
711.3936146211
 10
2275.9514657132
 20
712.1213595417
 10
2276.1932284628
 20
712.8407389657
 10
2276.5507140626
 20
713.2991068725
  0
LINE
  5
2D4
330
1F
100
AcDbEntity
  8
0
  6
Continuous
 62
     7
370
    15
100
AcDbLine
 10
2227.4981847294
 20
854.5172127489
 30
0.0
 11
2134.3924546378
 21
763.6431658914
 31
0.0
  0
LINE
  5
2D5
330
1F
100
AcDbEntity
  8
0
  6
Continuous
 62
     7
370
    15
100
AcDbLine
 10
2134.3924546378
 20
763.6431658914
 30
0.0
 11
2284.9646398534
 21
722.7208723215
 31
0.0
  0
LINE
  5
2D6
330
1F
100
AcDbEntity
  8
0
  6
Continuous
 62
     7
370
    15
100
AcDbLine
 10
2378.070369945
 20
813.5949191789
 30
0.0
 11
2284.9646398534
 21
722.7208723215
 31
0.0
  0
LINE
  5
2D7
330
1F
100
AcDbEntity
  8
0
  6
Continuous
 62
     7
370
    15
100
AcDbLine
 10
2227.4981847294
 20
854.5172127489
 30
0.0
 11
2378.070369945
 21
813.5949191789
 31
0.0
  0
LINE
  5
2D8
330
1F
100
AcDbEntity
  8
0
  6
Continuous
 62
     7
370
    15
100
AcDbLine
 10
2286.2912670359
 20
722.3603234795
 30
0.0
 11
2312.8238106863
 21
715.1493466389
 31
0.0
  0
LINE
  5
2D9
330
1F
100
AcDbEntity
  8
0
  6
Continuous
 62
     7
370
    15
100
AcDbLine
 10
2405.9295407778
 20
806.0233934964
 30
0.0
 11
2312.8238106863
 21
715.1493466389
 31
0.0
  0
LINE
  5
2DA
330
1F
100
AcDbEntity
  8
0
  6
Continuous
 62
     7
370
    15
100
AcDbLine
 10
2379.3969971275
 20
813.2343703369
 30
0.0
 11
2405.9295407778
 21
806.0233934964
 31
0.0
  0
LINE
  5
2DB
330
1F
100
AcDbEntity
  8
0
  6
Continuous
 62
     7
370
    15
100
AcDbLine
 10
2379.3969971275
 20
813.2343703369
 30
0.0
 11
2286.2912670359
 21
722.3603234795
 31
0.0
  0
LWPOLYLINE
  5
2DC
330
1F
100
AcDbEntity
  8
0
  6
Continuous
 62
     7
370
    15
100
AcDbPolyline
 90
       18
 70
   128
 43
0.0
 10
2339.7154820303
 20
698.8771531915
 10
2340.0131915769
 20
698.5135377534
 10
2340.3025842211
 20
697.7988379077
 10
2340.2377870352
 20
697.0695248844
 10
2339.8228714648
 20
696.3714241028
 10
2339.0839081811
 20
695.7483998026
 10
2338.0673289649
 20
695.2395988918
 10
2336.8370092272
 20
694.8769912029
 10
2335.4702544818
 20
694.6833607106
 10
2334.0529429559
 20
694.6708739308
 10
2332.6741295453
 20
694.8403154538
 10
2331.4204501674
 20
695.1810386456
 10
2330.3706781083
 20
695.671634615
 10
2329.5907744073
 20
696.2812774128
 10
2329.129743282
 20
696.9716609401
 10
2329.0165530138
 20
697.6994058606
 10
2329.2583157635
 20
698.4187852847
 10
2329.6158013633
 20
698.8771531915
  0
LINE
  5
2DD
330
1F
100
AcDbEntity
  8
0
  6
Continuous
 62
     7
370
    15
100
AcDbLine
 10
2342.0096087016
 20
707.2172721144
 30
0.0
 11
2368.5421523519
 21
700.0062952739
 31
0.0
  0
LINE
  5
2DE
330
1F
100
AcDbEntity
  8
0
  6
Continuous
 62
     7
370
    15
100
AcDbLine
 10
2461.6478824435
 20
790.8803421313
 30
0.0
 11
2368.5421523519
 21
700.0062952739
 31
0.0
  0
LINE
  5
2DF
330
1F
100
AcDbEntity
  8
0
  6
Continuous
 62
     7
370
    15
100
AcDbLine
 10
2435.1153387932
 20
798.0913189718
 30
0.0
 11
2461.6478824435
 21
790.8803421313
 31
0.0
  0
LINE
  5
2E0
330
1F
100
AcDbEntity
  8
0
  6
Continuous
 62
     7
370
    15
100
AcDbLine
 10
2435.1153387932
 20
798.0913189718
 30
0.0
 11
2342.0096087016
 21
707.2172721144
 31
0.0
  0
LWPOLYLINE
  5
2E1
330
1F
100
AcDbEntity
  8
0
  6
Continuous
 62
     7
370
    15
100
AcDbPolyline
 90
       12
 70
   128
 43
0.0
 10
2385.091566573
 20
680.5684116007
 10
2386.4182744552
 20
680.3113018562
 10
2387.8274486831
 20
680.2322007487
 10
2389.2305456575
 20
680.3360784918
 10
2390.5394036351
 20
680.6164080648
 10
2391.6717822557
 20
681.0555753297
 10
2392.5565300059
 20
681.6259857921
 10
2393.1380549307
 20
682.2917984648
 10
2393.3798176804
 20
683.0111778888
 10
2393.2666274122
 20
683.7389228094
 10
2392.8055962869
 20
684.4293063367
 10
2392.780569331
 20
684.4551995105
  0
LWPOLYLINE
  5
2E2
330
1F
100
AcDbEntity
  8
0
  6
Continuous
 62
     7
370
    15
100
AcDbPolyline
 90
        8
 70
   128
 43
0.0
 10
2382.6808886639
 20
684.4551995105
 10
2382.5734992294
 20
684.3391596467
 10
2382.158583659
 20
683.6410588651
 10
2382.0937864731
 20
682.9117458418
 10
2382.3831791173
 20
682.1970459961
 10
2383.0085779873
 20
681.5418665479
 10
2383.9306869721
 20
680.9873748315
 10
2385.091566573
 20
680.5684116007
  0
LINE
  5
2E3
330
1F
100
AcDbEntity
  8
0
  6
Continuous
 62
     7
370
    15
100
AcDbLine
 10
2117.7383386049
 20
750.6989933714
 30
0.0
 11
2648.3892116113
 21
606.479456561
 31
0.0
  0
LINE
  5
2E4
330
1F
100
AcDbEntity
  8
0
  6
Continuous
 62
     7
370
    15
100
AcDbLine
 10
2229.7452319481
 20
860.0211550044
 30
0.0
 11
2117.7383386049
 21
750.6989933714
 31
0.0
  0
LINE
  5
2E5
330
1F
100
AcDbEntity
  8
0
  6
Continuous
 62
     7
370
    15
100
AcDbLine
 10
2229.7452319481
 20
860.0211550044
 30
0.0
 11
2760.3961049546
 21
715.801618194
 31
0.0
  0
LINE
  5
2E6
330
1F
100
AcDbEntity
  8
0
  6
Continuous
 62
     7
370
    15
100
AcDbLine
 10
2760.3961049546
 20
715.801618194
 30
0.0
 11
2648.3892116113
 21
606.479456561
 31
0.0
  0
LINE
  5
2E7
330
1F
100
AcDbEntity
  8
0
  6
Continuous
 62
     7
370
    15
100
AcDbLine
 10
2369.8687795344
 20
699.6457464318
 30
0.0
 11
2396.4013231848
 21
692.4347695913
 31
0.0
  0
LINE
  5
2E8
330
1F
100
AcDbEntity
  8
0
  6
Continuous
 62
     7
370
    15
100
AcDbLine
 10
2489.5070532763
 20
783.3088164488
 30
0.0
 11
2396.4013231848
 21
692.4347695913
 31
0.0
  0
LINE
  5
2E9
330
1F
100
AcDbEntity
  8
0
  6
Continuous
 62
     7
370
    15
100
AcDbLine
 10
2462.974509626
 20
790.5197932893
 30
0.0
 11
2489.5070532763
 21
783.3088164488
 31
0.0
  0
LINE
  5
2EA
330
1F
100
AcDbEntity
  8
0
  6
Continuous
 62
     7
370
    15
100
AcDbLine
 10
2462.974509626
 20
790.5197932893
 30
0.0
 11
2369.8687795344
 21
699.6457464318
 31
0.0
  0
LWPOLYLINE
  5
2EB
330
1F
100
AcDbEntity
  8
0
  6
Continuous
 62
     7
370
    15
100
AcDbPolyline
 90
       18
 70
   128
 43
0.0
 10
2366.2480256806
 20
691.666176351
 10
2366.5457352273
 20
691.3025609129
 10
2366.8351278714
 20
690.5878610672
 10
2366.7703306855
 20
689.8585480438
 10
2366.3554151151
 20
689.1604472623
 10
2365.6164518314
 20
688.5374229621
 10
2364.5998726153
 20
688.0286220513
 10
2363.3695528775
 20
687.6660143624
 10
2362.0027981321
 20
687.4723838701
 10
2360.5854866063
 20
687.4598970903
 10
2359.2066731956
 20
687.6293386133
 10
2357.9529938178
 20
687.9700618051
 10
2356.9032217587
 20
688.4606577745
 10
2356.1233180576
 20
689.0703005723
 10
2355.6622869324
 20
689.7606840995
 10
2355.5490966642
 20
690.4884290201
 10
2355.7908594138
 20
691.2078084442
 10
2356.1483450136
 20
691.666176351
  0
LINE
  5
2EC
330
1F
100
AcDbEntity
  8
0
  6
Continuous
 62
     7
370
    15
100
AcDbLine
 10
2314.1504378688
 20
714.7887977969
 30
0.0
 11
2340.6829815191
 21
707.5778209564
 31
0.0
  0
LINE
  5
2ED
330
1F
100
AcDbEntity
  8
0
  6
Continuous
 62
     7
370
    15
100
AcDbLine
 10
2433.7887116106
 20
798.4518678139
 30
0.0
 11
2340.6829815191
 21
707.5778209564
 31
0.0
  0
LINE
  5
2EE
330
1F
100
AcDbEntity
  8
0
  6
Continuous
 62
     7
370
    15
100
AcDbLine
 10
2407.2561679603
 20
805.6628446544
 30
0.0
 11
2433.7887116106
 21
798.4518678139
 31
0.0
  0
LINE
  5
2EF
330
1F
100
AcDbEntity
  8
0
  6
Continuous
 62
     7
370
    15
100
AcDbLine
 10
2407.2561679603
 20
805.6628446544
 30
0.0
 11
2314.1504378688
 21
714.7887977969
 31
0.0
  0
LWPOLYLINE
  5
2F0
330
1F
100
AcDbEntity
  8
0
  6
Continuous
 62
     7
370
    15
100
AcDbPolyline
 90
       18
 70
   128
 43
0.0
 10
2313.18293838
 20
706.088130032
 10
2313.4806479266
 20
705.7245145939
 10
2313.7700405708
 20
705.0098147482
 10
2313.7052433849
 20
704.2805017249
 10
2313.2903278145
 20
703.5824009433
 10
2312.5513645308
 20
702.9593766431
 10
2311.5347853146
 20
702.4505757323
 10
2310.3044655769
 20
702.0879680434
 10
2308.9377108315
 20
701.8943375511
 10
2307.5203993056
 20
701.8818507713
 10
2306.141585895
 20
702.0512922943
 10
2304.8879065171
 20
702.3920154862
 10
2303.838134458
 20
702.8826114555
 10
2303.0582307569
 20
703.4922542533
 10
2302.5971996317
 20
704.1826377806
 10
2302.4840093635
 20
704.9103827011
 10
2302.7257721132
 20
705.6297621252
 10
2303.0832577129
 20
706.088130032
  0
LWPOLYLINE
  5
2F1
330
1F
100
AcDbEntity
  8
0
  6
Continuous
 62
     7
370
    15
100
AcDbPolyline
 90
       18
 70
   128
 43
0.0
 10
2260.1178510793
 20
720.510083713
 10
2260.415560626
 20
720.1464682749
 10
2260.7049532701
 20
719.4317684293
 10
2260.6401560842
 20
718.7024554059
 10
2260.2252405138
 20
718.0043546244
 10
2259.4862772301
 20
717.3813303241
 10
2258.469698014
 20
716.8725294133
 10
2257.2393782762
 20
716.5099217245
 10
2255.8726235308
 20
716.3162912321
 10
2254.455312005
 20
716.3038044523
 10
2253.0764985943
 20
716.4732459754
 10
2251.8228192165
 20
716.8139691672
 10
2250.7730471574
 20
717.3045651365
 10
2249.9931434563
 20
717.9142079344
 10
2249.5321123311
 20
718.6045914616
 10
2249.4189220629
 20
719.3323363822
 10
2249.6606848125
 20
720.0517158063
 10
2250.0181704123
 20
720.510083713
  0
LWPOLYLINE
  5
2F2
330
1F
100
AcDbEntity
  8
0
  6
Continuous
 62
     7
370
    15
100
AcDbPolyline
 90
       18
 70
   128
 43
0.0
 10
2207.0527637787
 20
734.9320373941
 10
2207.3504733253
 20
734.568421956
 10
2207.6398659695
 20
733.8537221103
 10
2207.5750687836
 20
733.1244090869
 10
2207.1601532132
 20
732.4263083054
 10
2206.4211899295
 20
731.8032840052
 10
2205.4046107133
 20
731.2944830944
 10
2204.1742909756
 20
730.9318754055
 10
2202.8075362302
 20
730.7382449132
 10
2201.3902247043
 20
730.7257581334
 10
2200.0114112937
 20
730.8951996564
 10
2198.7577319158
 20
731.2359228482
 10
2197.7079598567
 20
731.7265188176
 10
2196.9280561556
 20
732.3361616154
 10
2196.4670250304
 20
733.0265451426
 10
2196.3538347622
 20
733.7542900632
 10
2196.5955975119
 20
734.4736694873
 10
2196.9530831116
 20
734.9320373941
  0
LWPOLYLINE
  5
2F3
330
1F
100
AcDbEntity
  8
0
  6
Continuous
 62
     7
370
    15
100
AcDbPolyline
 90
       18
 70
   128
 43
0.0
 10
2153.987676478
 20
749.3539910751
 10
2154.2853860247
 20
748.990375637
 10
2154.5747786688
 20
748.2756757913
 10
2154.509981483
 20
747.546362768
 10
2154.0950659125
 20
746.8482619864
 10
2153.3561026288
 20
746.2252376862
 10
2152.3395234127
 20
745.7164367754
 10
2151.1092036749
 20
745.3538290865
 10
2149.7424489295
 20
745.1601985942
 10
2148.3251374037
 20
745.1477118144
 10
2146.9463239931
 20
745.3171533375
 10
2145.6926446152
 20
745.6578765293
 10
2144.6428725561
 20
746.1484724986
 10
2143.862968855
 20
746.7581152964
 10
2143.4019377298
 20
747.4484988237
 10
2143.2887474616
 20
748.1762437443
 10
2143.5305102112
 20
748.8956231683
 10
2143.887995811
 20
749.3539910751
  0
LINE
  5
2F4
330
1F
100
AcDbEntity
  8
0
  6
Continuous
 62
     7
370
    15
100
AcDbLine
 10
2518.6928512917
 20
775.3767419242
 30
0.0
 11
2425.5871212001
 21
684.5026950667
 31
0.0
  0
LINE
  5
2F5
330
1F
100
AcDbEntity
  8
0
  6
Continuous
 62
     7
370
    15
100
AcDbLine
 10
2425.5871212001
 20
684.5026950667
 30
0.0
 11
2452.1196648504
 21
677.2917182262
 31
0.0
  0
LINE
  5
2F6
330
1F
100
AcDbEntity
  8
0
  6
Continuous
 62
     7
370
    15
100
AcDbLine
 10
2545.225394942
 20
768.1657650837
 30
0.0
 11
2452.1196648504
 21
677.2917182262
 31
0.0
  0
LINE
  5
2F7
330
1F
100
AcDbEntity
  8
0
  6
Continuous
 62
     7
370
    15
100
AcDbLine
 10
2518.6928512917
 20
775.3767419242
 30
0.0
 11
2545.225394942
 21
768.1657650837
 31
0.0
  0
LWPOLYLINE
  5
2F8
330
1F
100
AcDbEntity
  8
0
  6
Continuous
 62
     7
370
    15
100
AcDbPolyline
 90
       18
 70
   128
 43
0.0
 10
2445.8456566316
 20
670.0332458294
 10
2446.1433661782
 20
669.6696303913
 10
2446.4327588224
 20
668.9549305456
 10
2446.3679616365
 20
668.2256175223
 10
2445.9530460661
 20
667.5275167407
 10
2445.2140827824
 20
666.9044924405
 10
2444.1975035662
 20
666.3956915297
 10
2442.9671838285
 20
666.0330838408
 10
2441.6004290831
 20
665.8394533485
 10
2440.1831175572
 20
665.8269665687
 10
2438.8043041466
 20
665.9964080918
 10
2437.5506247687
 20
666.3371312836
 10
2436.5008527096
 20
666.8277272529
 10
2435.7209490086
 20
667.4373700507
 10
2435.2599178833
 20
668.127753578
 10
2435.1467276151
 20
668.8554984986
 10
2435.3884903648
 20
669.5748779226
 10
2435.7459759645
 20
670.0332458294
  0
LINE
  5
2F9
330
1F
100
AcDbEntity
  8
0
  6
Continuous
 62
     7
370
    15
100
AcDbLine
 10
2509.1646336986
 20
661.7881180191
 30
0.0
 11
2659.7368189142
 21
620.8658244492
 31
0.0
  0
LINE
  5
2FA
330
1F
100
AcDbEntity
  8
0
  6
Continuous
 62
     7
370
    15
100
AcDbLine
 10
2752.8425490058
 20
711.7398713066
 30
0.0
 11
2659.7368189142
 21
620.8658244492
 31
0.0
  0
LINE
  5
2FB
330
1F
100
AcDbEntity
  8
0
  6
Continuous
 62
     7
370
    15
100
AcDbLine
 10
2602.2703637902
 20
752.6621648766
 30
0.0
 11
2752.8425490058
 21
711.7398713066
 31
0.0
  0
LINE
  5
2FC
330
1F
100
AcDbEntity
  8
0
  6
Continuous
 62
     7
370
    15
100
AcDbLine
 10
2602.2703637902
 20
752.6621648766
 30
0.0
 11
2509.1646336986
 21
661.7881180191
 31
0.0
  0
LINE
  5
2FD
330
1F
100
AcDbEntity
  8
0
  6
Continuous
 62
     7
370
    15
100
AcDbLine
 10
2574.4111929573
 20
760.2336905591
 30
0.0
 11
2481.3054628658
 21
669.3596437017
 31
0.0
  0
LINE
  5
2FE
330
1F
100
AcDbEntity
  8
0
  6
Continuous
 62
     7
370
    15
100
AcDbLine
 10
2481.3054628658
 20
669.3596437017
 30
0.0
 11
2507.8380065161
 21
662.1486668611
 31
0.0
  0
LINE
  5
2FF
330
1F
100
AcDbEntity
  8
0
  6
Continuous
 62
     7
370
    15
100
AcDbLine
 10
2600.9437366077
 20
753.0227137186
 30
0.0
 11
2507.8380065161
 21
662.1486668611
 31
0.0
  0
LINE
  5
300
330
1F
100
AcDbEntity
  8
0
  6
Continuous
 62
     7
370
    15
100
AcDbLine
 10
2574.4111929573
 20
760.2336905591
 30
0.0
 11
2600.9437366077
 21
753.0227137186
 31
0.0
  0
LWPOLYLINE
  5
301
330
1F
100
AcDbEntity
  8
0
  6
Continuous
 62
     7
370
    15
100
AcDbPolyline
 90
       18
 70
   128
 43
0.0
 10
2498.9107439322
 20
655.6112921484
 10
2499.2084534789
 20
655.2476767103
 10
2499.497846123
 20
654.5329768646
 10
2499.4330489372
 20
653.8036638413
 10
2499.0181333667
 20
653.1055630597
 10
2498.279170083
 20
652.4825387595
 10
2497.2625908669
 20
651.9737378487
 10
2496.0322711291
 20
651.6111301598
 10
2494.6655163837
 20
651.4174996675
 10
2493.2482048579
 20
651.4050128877
 10
2491.8693914472
 20
651.5744544107
 10
2490.6157120694
 20
651.9151776025
 10
2489.5659400103
 20
652.4057735719
 10
2488.7860363092
 20
653.0154163697
 10
2488.325005184
 20
653.705799897
 10
2488.2118149158
 20
654.4335448175
 10
2488.4535776654
 20
655.1529242416
 10
2488.8110632652
 20
655.6112921484
  0
LWPOLYLINE
  5
302
330
1F
100
AcDbEntity
  8
0
  6
Continuous
 62
     7
370
    15
100
AcDbPolyline
 90
       18
 70
   128
 43
0.0
 10
2551.9758312329
 20
641.1893384674
 10
2552.2735407795
 20
640.8257230292
 10
2552.5629334237
 20
640.1110231836
 10
2552.4981362378
 20
639.3817101602
 10
2552.0832206674
 20
638.6836093787
 10
2551.3442573837
 20
638.0605850784
 10
2550.3276781675
 20
637.5517841676
 10
2549.0973584298
 20
637.1891764788
 10
2547.7306036844
 20
636.9955459864
 10
2546.3132921585
 20
636.9830592067
 10
2544.9344787479
 20
637.1525007297
 10
2543.68079937
 20
637.4932239215
 10
2542.6310273109
 20
637.9838198908
 10
2541.8511236098
 20
638.5934626887
 10
2541.3900924846
 20
639.2838462159
 10
2541.2769022164
 20
640.0115911365
 10
2541.5186649661
 20
640.7309705606
 10
2541.8761505658
 20
641.1893384674
  0
LWPOLYLINE
  5
303
330
1F
100
AcDbEntity
  8
0
  6
Continuous
 62
     7
370
    15
100
AcDbPolyline
 90
       18
 70
   128
 43
0.0
 10
2605.0409185335
 20
626.7673847863
 10
2605.3386280802
 20
626.4037693482
 10
2605.6280207243
 20
625.6890695025
 10
2605.5632235384
 20
624.9597564792
 10
2605.148307968
 20
624.2616556976
 10
2604.4093446843
 20
623.6386313974
 10
2603.3927654682
 20
623.1298304866
 10
2602.1624457304
 20
622.7672227977
 10
2600.795690985
 20
622.5735923054
 10
2599.3783794592
 20
622.5611055256
 10
2597.9995660485
 20
622.7305470487
 10
2596.7458866707
 20
623.0712702405
 10
2595.6961146116
 20
623.5618662098
 10
2594.9162109105
 20
624.1715090076
 10
2594.4551797853
 20
624.8618925349
 10
2594.3419895171
 20
625.5896374555
 10
2594.5837522667
 20
626.3090168795
 10
2594.9412378665
 20
626.7673847863
  0
LWPOLYLINE
  5
304
330
1F
100
AcDbEntity
  8
0
  6
Continuous
 62
     7
370
    15
100
AcDbPolyline
 90
       18
 70
   128
 43
0.0
 10
2399.2874871958
 20
685.7653500003
 10
2398.9300015961
 20
685.3069820935
 10
2398.6882388464
 20
684.5876026694
 10
2398.8014291146
 20
683.8598577488
 10
2399.2624602399
 20
683.1694742216
 10
2400.0423639409
 20
682.5598314238
 10
2401.092136
 20
682.0692354544
 10
2402.3458153779
 20
681.7285122626
 10
2403.7246287885
 20
681.5590707396
 10
2405.1419403144
 20
681.5715575194
 10
2406.5086950598
 20
681.7651880117
 10
2407.7390147975
 20
682.1277957006
 10
2408.7555940137
 20
682.6365966113
 10
2409.4945572974
 20
683.2596209116
 10
2409.9094728678
 20
683.9577216931
 10
2409.9742700537
 20
684.6870347165
 10
2409.6848774095
 20
685.4017345621
 10
2409.3871678629
 20
685.7653500003
  0
LWPOLYLINE
  5
305
330
1F
100
AcDbEntity
  8
0
  6
Continuous
 62
     7
370
    15
100
AcDbPolyline
 90
       18
 70
   128
 43
0.0
 10
2346.2223998952
 20
700.1873036813
 10
2345.8649142954
 20
699.7289357745
 10
2345.6231515458
 20
699.0095563504
 10
2345.736341814
 20
698.2818114299
 10
2346.1973729392
 20
697.5914279026
 10
2346.9772766403
 20
696.9817851048
 10
2348.0270486994
 20
696.4911891354
 10
2349.2807280773
 20
696.1504659436
 10
2350.6595414879
 20
695.9810244206
 10
2352.0768530137
 20
695.9935112004
 10
2353.4436077591
 20
696.1871416927
 10
2354.6739274969
 20
696.5497493816
 10
2355.6905067131
 20
697.0585502924
 10
2356.4294699968
 20
697.6815745926
 10
2356.8443855672
 20
698.3796753742
 10
2356.909182753
 20
699.1089883975
 10
2356.6197901089
 20
699.8236882432
 10
2356.3220805623
 20
700.1873036813
  0
LWPOLYLINE
  5
306
330
1F
100
AcDbEntity
  8
0
  6
Continuous
 62
     7
370
    15
100
AcDbPolyline
 90
       18
 70
   128
 43
0.0
 10
2293.1573125946
 20
714.6092573623
 10
2292.7998269948
 20
714.1508894556
 10
2292.5580642451
 20
713.4315100315
 10
2292.6712545133
 20
712.7037651109
 10
2293.1322856386
 20
712.0133815837
 10
2293.9121893396
 20
711.4037387858
 10
2294.9619613987
 20
710.9131428165
 10
2296.2156407766
 20
710.5724196247
 10
2297.5944541872
 20
710.4029781016
 10
2299.0117657131
 20
710.4154648814
 10
2300.3785204585
 20
710.6090953737
 10
2301.6088401962
 20
710.9717030626
 10
2302.6254194124
 20
711.4805039734
 10
2303.3643826961
 20
712.1035282736
 10
2303.7792982665
 20
712.8016290552
 10
2303.8440954524
 20
713.5309420786
 10
2303.5547028082
 20
714.2456419242
 10
2303.2569932616
 20
714.6092573623
  0
LWPOLYLINE
  5
307
330
1F
100
AcDbEntity
  8
0
  6
Continuous
 62
     7
370
    15
100
AcDbPolyline
 90
       18
 70
   128
 43
0.0
 10
2240.0922252939
 20
729.0312110434
 10
2239.7347396941
 20
728.5728431366
 10
2239.4929769445
 20
727.8534637125
 10
2239.6061672127
 20
727.1257187919
 10
2240.0671983379
 20
726.4353352647
 10
2240.847102039
 20
725.8256924669
 10
2241.8968740981
 20
725.3350964975
 10
2243.150553476
 20
724.9943733057
 10
2244.5293668866
 20
724.8249317827
 10
2245.9466784124
 20
724.8374185625
 10
2247.3134331579
 20
725.0310490548
 10
2248.5437528956
 20
725.3936567437
 10
2249.5603321118
 20
725.9024576545
 10
2250.2992953955
 20
726.5254819547
 10
2250.7142109659
 20
727.2235827362
 10
2250.7790081517
 20
727.9528957596
 10
2250.4896155076
 20
728.6675956052
 10
2250.191905961
 20
729.0312110434
  0
LWPOLYLINE
  5
308
330
1F
100
AcDbEntity
  8
0
  6
Continuous
 62
     7
370
    15
100
AcDbPolyline
 90
       18
 70
   128
 43
0.0
 10
2187.0271379933
 20
743.4531647244
 10
2186.6696523935
 20
742.9947968176
 10
2186.4278896438
 20
742.2754173935
 10
2186.5410799121
 20
741.547672473
 10
2187.0021110373
 20
740.8572889457
 10
2187.7820147383
 20
740.2476461479
 10
2188.8317867974
 20
739.7570501786
 10
2190.0854661753
 20
739.4163269867
 10
2191.4642795859
 20
739.2468854637
 10
2192.8815911118
 20
739.2593722435
 10
2194.2483458572
 20
739.4530027358
 10
2195.478665595
 20
739.8156104247
 10
2196.4952448111
 20
740.3244113355
 10
2197.2342080948
 20
740.9474356357
 10
2197.6491236652
 20
741.6455364173
 10
2197.7139208511
 20
742.3748494406
 10
2197.424528207
 20
743.0895492863
 10
2197.1268186603
 20
743.4531647244
  0
LWPOLYLINE
  5
309
330
1F
100
AcDbEntity
  8
0
  6
Continuous
 62
     7
370
    15
100
AcDbPolyline
 90
       18
 70
   128
 43
0.0
 10
2133.9620506926
 20
757.8751184054
 10
2133.6045650928
 20
757.4167504987
 10
2133.3628023432
 20
756.6973710746
 10
2133.4759926114
 20
755.969626154
 10
2133.9370237366
 20
755.2792426268
 10
2134.7169274377
 20
754.6695998289
 10
2135.7666994968
 20
754.1790038596
 10
2137.0203788747
 20
753.8382806678
 10
2138.3991922853
 20
753.6688391447
 10
2139.8165038112
 20
753.6813259245
 10
2141.1832585566
 20
753.8749564168
 10
2142.4135782943
 20
754.2375641057
 10
2143.4301575105
 20
754.7463650165
 10
2144.1691207942
 20
755.3693893168
 10
2144.5840363646
 20
756.0674900983
 10
2144.6488335505
 20
756.7968031217
 10
2144.3594409063
 20
757.5115029673
 10
2144.0617313597
 20
757.8751184054
  0
LWPOLYLINE
  5
30A
330
1F
100
AcDbEntity
  8
0
  6
Continuous
 62
     7
370
    15
100
AcDbPolyline
 90
       18
 70
   128
 43
0.0
 10
2452.3525744965
 20
671.3433963192
 10
2451.9950888967
 20
670.8850284124
 10
2451.7533261471
 20
670.1656489884
 10
2451.8665164153
 20
669.4379040678
 10
2452.3275475405
 20
668.7475205406
 10
2453.1074512416
 20
668.1378777427
 10
2454.1572233007
 20
667.6472817734
 10
2455.4109026785
 20
667.3065585816
 10
2456.7897160892
 20
667.1371170585
 10
2458.207027615
 20
667.1496038383
 10
2459.5737823604
 20
667.3432343306
 10
2460.8041020982
 20
667.7058420195
 10
2461.8206813143
 20
668.2146429303
 10
2462.559644598
 20
668.8376672305
 10
2462.9745601685
 20
669.5357680121
 10
2463.0393573543
 20
670.2650810354
 10
2462.7499647102
 20
670.9797808811
 10
2462.4522551635
 20
671.3433963192
  0
LWPOLYLINE
  5
30B
330
1F
100
AcDbEntity
  8
0
  6
Continuous
 62
     7
370
    15
100
AcDbPolyline
 90
       18
 70
   128
 43
0.0
 10
2505.4176617971
 20
656.9214426382
 10
2505.0601761974
 20
656.4630747314
 10
2504.8184134477
 20
655.7436953073
 10
2504.9316037159
 20
655.0159503868
 10
2505.3926348411
 20
654.3255668595
 10
2506.1725385422
 20
653.7159240617
 10
2507.2223106013
 20
653.2253280923
 10
2508.4759899792
 20
652.8846049005
 10
2509.8548033898
 20
652.7151633775
 10
2511.2721149157
 20
652.7276501573
 10
2512.6388696611
 20
652.9212806496
 10
2513.8691893988
 20
653.2838883385
 10
2514.885768615
 20
653.7926892493
 10
2515.6247318987
 20
654.4157135495
 10
2516.0396474691
 20
655.1138143311
 10
2516.104444655
 20
655.8431273544
 10
2515.8150520108
 20
656.5578272001
 10
2515.5173424642
 20
656.9214426382
  0
LWPOLYLINE
  5
30C
330
1F
100
AcDbEntity
  8
0
  6
Continuous
 62
     7
370
    15
100
AcDbPolyline
 90
       18
 70
   128
 43
0.0
 10
2558.4827490978
 20
642.4994889572
 10
2558.125263498
 20
642.0411210504
 10
2557.8835007484
 20
641.3217416263
 10
2557.9966910166
 20
640.5939967057
 10
2558.4577221418
 20
639.9036131785
 10
2559.2376258429
 20
639.2939703806
 10
2560.287397902
 20
638.8033744113
 10
2561.5410772798
 20
638.4626512195
 10
2562.9198906905
 20
638.2932096965
 10
2564.3372022163
 20
638.3056964763
 10
2565.7039569617
 20
638.4993269686
 10
2566.9342766995
 20
638.8619346575
 10
2567.9508559156
 20
639.3707355682
 10
2568.6898191993
 20
639.9937598685
 10
2569.1047347697
 20
640.69186065
 10
2569.1695319556
 20
641.4211736734
 10
2568.8801393115
 20
642.135873519
 10
2568.5824297648
 20
642.4994889572
  0
LWPOLYLINE
  5
30D
330
1F
100
AcDbEntity
  8
0
  6
Continuous
 62
     7
370
    15
100
AcDbPolyline
 90
       18
 70
   128
 43
0.0
 10
2611.5478363984
 20
628.0775352761
 10
2611.1903507986
 20
627.6191673693
 10
2610.948588049
 20
626.8997879453
 10
2611.0617783172
 20
626.1720430247
 10
2611.5228094424
 20
625.4816594975
 10
2612.3027131435
 20
624.8720166996
 10
2613.3524852026
 20
624.3814207303
 10
2614.6061645805
 20
624.0406975385
 10
2615.9849779911
 20
623.8712560154
 10
2617.402289517
 20
623.8837427952
 10
2618.7690442624
 20
624.0773732875
 10
2619.9993640001
 20
624.4399809764
 10
2621.0159432163
 20
624.9487818872
 10
2621.7549065
 20
625.5718061874
 10
2622.1698220704
 20
626.269906969
 10
2622.2346192563
 20
626.9992199923
 10
2621.9452266121
 20
627.713919838
 10
2621.6475170655
 20
628.0775352761
  0
LINE
  5
30E
330
1F
100
AcDbEntity
  8
0
  6
Continuous
 62
     7
370
    15
100
AcDbLine
 10
2648.3892116113
 20
606.479456561
 30
0.0
 11
2648.3892116113
 21
546.4777455118
 31
0.0
  0
LINE
  5
30F
330
1F
100
AcDbEntity
  8
0
  6
Continuous
 62
     7
370
    15
100
AcDbLine
 10
2760.3961049546
 20
681.5149261659
 30
0.0
 11
2760.3961049546
 21
715.801618194
 31
0.0
  0
LINE
  5
310
330
1F
100
AcDbEntity
  8
0
  6
Continuous
 62
     7
370
    15
100
AcDbLine
 10
2746.3952432867
 20
642.1346369407
 30
0.0
 11
2760.3961049546
 21
681.5149261659
 31
0.0
  0
LINE
  5
311
330
1F
100
AcDbEntity
  8
0
  6
Continuous
 62
     7
370
    15
100
AcDbLine
 10
2648.3892116113
 20
546.4777455118
 30
0.0
 11
2746.3952432867
 21
642.1346369407
 31
0.0
  0
LWPOLYLINE
  5
312
330
1F
100
AcDbEntity
  8
0
  6
Continuous
 62
     7
370
    15
100
AcDbPolyline
 90
       28
 70
   128
 43
0.0
 10
2667.7570702519
 20
578.2388788048
 10
2667.675301327
 20
579.4439663195
 10
2667.434402736
 20
580.4244692994
 10
2667.0473613845
 20
581.1275285751
 10
2666.5350427718
 20
581.5152420389
 10
2665.9250661269
 20
581.5667079577
 10
2665.2503154487
 20
581.2791517905
 10
2664.5471667209
 20
580.6680757647
 10
2663.8535268734
 20
579.766423147
 10
2663.2067902099
 20
578.6228022635
 10
2662.6418224713
 20
577.2988660119
 10
2662.1890812148
 20
575.8659881383
 10
2661.8729738385
 20
574.4014154597
 10
2661.7105417731
 20
572.9841034684
 10
2661.7105417731
 20
571.6904598206
 10
2661.8729738385
 20
570.5902251802
 10
2662.1890812148
 20
569.7427134815
 10
2662.6418224713
 20
569.1936142996
 10
2663.2067902099
 20
568.9725297134
 10
2663.8535268734
 20
569.0913784502
 10
2664.5471667209
 20
569.5437533439
 10
2665.2503154487
 20
570.3052667468
 10
2665.9250661269
 20
571.3348652743
 10
2666.5350427718
 20
572.5770430033
 10
2667.0473613845
 20
573.9648338109
 10
2667.434402736
 20
575.4234215354
 10
2667.675301327
 20
576.874173335
 10
2667.7570702519
 20
578.2388788048
  0
LWPOLYLINE
  5
313
330
1F
100
AcDbEntity
  8
0
  6
Continuous
 62
     7
370
    15
100
AcDbPolyline
 90
       14
 70
   128
 43
0.0
 10
2729.3608615907
 20
632.7944802484
 10
2730.0868304514
 20
633.6649483174
 10
2730.7706086406
 20
634.8086283573
 10
2731.3724574555
 20
636.1590538412
 10
2731.8573996307
 20
637.6377429486
 10
2732.1972520894
 20
639.1587596433
 10
2732.3722638423
 20
640.6337079638
 10
2732.3722638423
 20
641.9768692748
 10
2732.1972520894
 20
643.1101839232
 10
2731.8573996307
 20
643.9677877811
 10
2731.3724574555
 20
644.4998400294
 10
2730.7706086406
 20
644.6754197255
 10
2730.0868304514
 20
644.4843228156
 10
2729.3608615907
 20
643.9376551575
  0
LINE
  5
314
330
1F
100
AcDbEntity
  8
0
  6
Continuous
 62
     7
370
    15
100
AcDbLine
 10
2729.3608615907
 20
643.9376551575
 30
0.0
 11
2712.0931322003
 21
627.0838219057
 31
0.0
  0
LWPOLYLINE
  5
315
330
1F
100
AcDbEntity
  8
0
  6
Continuous
 62
     7
370
    15
100
AcDbPolyline
 90
       14
 70
   128
 43
0.0
 10
2712.0931322003
 20
627.0838219057
 10
2711.3671633397
 20
626.2133538367
 10
2710.6833851504
 20
625.0696737968
 10
2710.0815363355
 20
623.7192483129
 10
2709.5965941604
 20
622.2405592055
 10
2709.2567417016
 20
620.7195425108
 10
2709.0817299487
 20
619.2445941903
 10
2709.0817299487
 20
617.9014328793
 10
2709.2567417016
 20
616.7681182309
 10
2709.5965941604
 20
615.910514373
 10
2710.0815363355
 20
615.3784621247
 10
2710.6833851504
 20
615.2028824286
 10
2711.3671633397
 20
615.3939793385
 10
2712.0931322003
 20
615.9406469966
  0
LINE
  5
316
330
1F
100
AcDbEntity
  8
0
  6
Continuous
 62
     7
370
    15
100
AcDbLine
 10
2712.0931322003
 20
615.9406469966
 30
0.0
 11
2729.3608615907
 21
632.7944802484
 31
0.0
  0
LINE
  5
317
330
1F
100
AcDbEntity
  8
0
  6
Continuous
 62
     7
370
    15
100
AcDbLine
 10
2645.7359572463
 20
547.1988431959
 30
0.0
 11
2648.3892116113
 21
546.4777455118
 31
0.0
  0
LINE
  5
318
330
1F
100
AcDbEntity
  8
0
  6
Continuous
 62
     7
370
    15
100
AcDbLine
 10
2645.7359572463
 20
588.3428736296
 30
0.0
 11
2645.7359572463
 21
547.1988431959
 31
0.0
  0
LINE
  5
319
330
1F
100
AcDbEntity
  8
0
  6
Continuous
 62
     7
370
    15
100
AcDbLine
 10
2120.3915929699
 20
731.1202150719
 30
0.0
 11
2645.7359572463
 21
588.3428736296
 31
0.0
  0
LINE
  5
31A
330
1F
100
AcDbEntity
  8
0
  6
Continuous
 62
     7
370
    15
100
AcDbLine
 10
2120.3915929699
 20
731.1202150719
 30
0.0
 11
2120.3915929699
 21
689.9761846382
 31
0.0
  0
LINE
  5
31B
330
1F
100
AcDbEntity
  8
0
  6
Continuous
 62
     7
370
    15
100
AcDbLine
 10
2120.3915929699
 20
689.9761846382
 30
0.0
 11
2117.7383386049
 21
690.6972823222
 31
0.0
  0
LINE
  5
31C
330
1F
100
AcDbEntity
  8
0
  6
Continuous
 62
     7
370
    15
100
AcDbLine
 10
2117.7383386049
 20
750.6989933714
 30
0.0
 11
2117.7383386049
 21
690.6972823222
 31
0.0
  0
LWPOLYLINE
  5
31D
330
1F
100
AcDbEntity
  8
0
  6
Continuous
 62
     7
370
    15
100
AcDbPolyline
 90
       21
 70
   128
 43
0.0
 10
2628.2293934969
 20
622.1990455823
 10
2629.1448194297
 20
621.8460773201
 10
2629.8036642806
 20
621.3646894658
 10
2630.141435725
 20
620.8020036166
 10
2630.1250703405
 20
620.213099384
 10
2629.7561700851
 20
619.6556228174
 10
2629.0708454859
 20
619.1841436072
 10
2628.1361808897
 20
618.8448134235
 10
2627.0436677795
 20
618.6708482691
 10
2625.9002489502
 20
618.6792770652
 10
2624.8178502038
 20
618.8692747426
 10
2623.9024242709
 20
619.2222430048
 10
2623.2435794201
 20
619.7036308591
 10
2622.9058079757
 20
620.2663167082
 10
2622.9221733601
 20
620.8552209408
 10
2623.2910736156
 20
621.4126975075
 10
2623.9763982148
 20
621.8841767177
 10
2624.9110628109
 20
622.2235069013
 10
2626.0035759212
 20
622.3974720558
 10
2627.1469947504
 20
622.3890432597
 10
2628.2293934969
 20
622.1990455823
  0
LWPOLYLINE
  5
31E
330
1F
100
AcDbEntity
  8
0
  6
Continuous
 62
     7
370
    15
100
AcDbPolyline
 90
       21
 70
   128
 43
0.0
 10
2641.4244487357
 20
620.1794252324
 10
2642.5068474822
 20
619.989427555
 10
2643.6502663114
 20
619.9809987589
 10
2644.7427794217
 20
620.1549639133
 10
2645.6774440178
 20
620.494294097
 10
2646.362768617
 20
620.9657733072
 10
2646.7316688725
 20
621.5232498738
 10
2646.7480342569
 20
622.1121541064
 10
2646.4102628125
 20
622.6748399556
 10
2645.7514179617
 20
623.1562278099
 10
2644.8359920288
 20
623.5091960721
 10
2643.7535932824
 20
623.6991937495
 10
2642.6101744531
 20
623.7076225456
 10
2641.5176613429
 20
623.5336573912
 10
2640.5829967467
 20
623.1943272075
 10
2639.8976721475
 20
622.7228479973
 10
2639.5287718921
 20
622.1653714307
 10
2639.5124065076
 20
621.576467198
 10
2639.850177952
 20
621.0137813489
 10
2640.5090228029
 20
620.5323934946
 10
2641.4244487357
 20
620.1794252324
  0
LWPOLYLINE
  5
31F
330
1F
100
AcDbEntity
  8
0
  6
Continuous
 62
     7
370
    15
100
AcDbPolyline
 90
       20
 70
   128
 43
0.0
 10
2628.1570557116
 20
622.1284416862
 10
2629.0736470908
 20
621.7688957413
 10
2629.7139036675
 20
621.2755470375
 10
2630.008443707
 20
620.701857562
 10
2629.9253492257
 20
620.1099954711
 10
2629.4736248001
 20
619.5640982062
 10
2628.7022217808
 20
619.1233222062
 10
2627.6947336547
 20
618.8354323903
 10
2626.5603373928
 20
618.7316260869
 10
2625.4219624322
 20
618.8231523198
 10
2624.4029693636
 20
619.1000928014
 10
2623.6137818972
 20
619.5324367335
 10
2623.1399207406
 20
620.0733329425
 10
2623.0327361027
 20
620.6641669312
 10
2623.3038431023
 20
621.2409126692
 10
2623.9238630892
 20
621.7410708067
 10
2624.8256072773
 20
622.1104414488
 10
2625.9113576918
 20
622.308997555
 10
2627.0634564282
 20
622.3152224902
 10
2628.1570557116
 20
622.1284416862
  0
LWPOLYLINE
  5
320
330
1F
100
AcDbEntity
  8
0
  6
Continuous
 62
     7
370
    15
100
AcDbPolyline
 90
       20
 70
   128
 43
0.0
 10
2641.496786521
 20
620.2500291284
 10
2642.5903858044
 20
620.0632483244
 10
2643.7424845408
 20
620.0694732597
 10
2644.8282349553
 20
620.2680293658
 10
2645.7299791434
 20
620.6374000079
 10
2646.3499991303
 20
621.1375581455
 10
2646.6211061299
 20
621.7143038835
 10
2646.513921492
 20
622.3051378722
 10
2646.0400603354
 20
622.8460340811
 10
2645.250872869
 20
623.2783780132
 10
2644.2318798004
 20
623.5553184949
 10
2643.0935048398
 20
623.6468447278
 10
2641.9591085779
 20
623.5430384244
 10
2640.9516204518
 20
623.2551486084
 10
2640.1802174325
 20
622.8143726085
 10
2639.7284930069
 20
622.2684753435
 10
2639.6453985256
 20
621.6766132527
 10
2639.9399385651
 20
621.1029237772
 10
2640.5801951418
 20
620.6095750734
 10
2641.496786521
 20
620.2500291284
  0
LINE
  5
321
330
1F
100
AcDbEntity
  8
0
  6
Continuous
 62
     7
370
    15
100
AcDbLine
 10
2126.458633026
 20
695.8978017266
 30
0.0
 11
2645.7359572463
 21
554.7693517707
 31
0.0
  0
LINE
  5
322
330
1F
100
AcDbEntity
  8
0
  6
Continuous
 62
     7
370
    15
100
AcDbLine
 10
2126.458633026
 20
729.4713235856
 30
0.0
 11
2126.458633026
 21
695.8978017266
 31
0.0
  0
LWPOLYLINE
  5
323
330
1F
100
AcDbEntity
  8
0
  6
Continuous
 62
     7
370
    15
100
AcDbPolyline
 90
       21
 70
   128
 43
0.0
 10
2601.6968498465
 20
629.4100224228
 10
2602.6122757794
 20
629.0570541606
 10
2603.2711206303
 20
628.5756663063
 10
2603.6088920747
 20
628.0129804572
 10
2603.5925266902
 20
627.4240762245
 10
2603.2236264347
 20
626.8665996579
 10
2602.5383018356
 20
626.3951204477
 10
2601.6036372394
 20
626.055790264
 10
2600.5111241291
 20
625.8818251096
 10
2599.3677052999
 20
625.8902539057
 10
2598.2853065535
 20
626.0802515831
 10
2597.3698806206
 20
626.4332198453
 10
2596.7110357697
 20
626.9146076996
 10
2596.3732643254
 20
627.4772935487
 10
2596.3896297098
 20
628.0661977814
 10
2596.7585299653
 20
628.623674348
 10
2597.4438545644
 20
629.0951535582
 10
2598.3785191606
 20
629.4344837419
 10
2599.4710322709
 20
629.6084488963
 10
2600.6144511001
 20
629.6000201002
 10
2601.6968498465
 20
629.4100224228
  0
LWPOLYLINE
  5
324
330
1F
100
AcDbEntity
  8
0
  6
Continuous
 62
     7
370
    15
100
AcDbPolyline
 90
       21
 70
   128
 43
0.0
 10
2614.8919050854
 20
627.3904020729
 10
2615.9743038319
 20
627.2004043955
 10
2617.1177226611
 20
627.1919755994
 10
2618.2102357714
 20
627.3659407539
 10
2619.1449003675
 20
627.7052709375
 10
2619.8302249667
 20
628.1767501477
 10
2620.1991252221
 20
628.7342267144
 10
2620.2154906066
 20
629.323130947
 10
2619.8777191622
 20
629.8858167961
 10
2619.2188743114
 20
630.3672046504
 10
2618.3034483785
 20
630.7201729126
 10
2617.221049632
 20
630.91017059
 10
2616.0776308028
 20
630.9185993861
 10
2614.9851176925
 20
630.7446342317
 10
2614.0504530964
 20
630.405304048
 10
2613.3651284972
 20
629.9338248378
 10
2612.9962282418
 20
629.3763482712
 10
2612.9798628573
 20
628.7874440386
 10
2613.3176343017
 20
628.2247581894
 10
2613.9764791525
 20
627.7433703351
 10
2614.8919050854
 20
627.3904020729
  0
LWPOLYLINE
  5
325
330
1F
100
AcDbEntity
  8
0
  6
Continuous
 62
     7
370
    15
100
AcDbPolyline
 90
       20
 70
   128
 43
0.0
 10
2601.6245120613
 20
629.3394185268
 10
2602.5411034405
 20
628.9798725818
 10
2603.1813600172
 20
628.486523878
 10
2603.4759000567
 20
627.9128344025
 10
2603.3928055754
 20
627.3209723117
 10
2602.9410811498
 20
626.7750750467
 10
2602.1696781305
 20
626.3342990468
 10
2601.1621900043
 20
626.0464092308
 10
2600.0277937425
 20
625.9426029274
 10
2598.8894187819
 20
626.0341291603
 10
2597.8704257133
 20
626.311069642
 10
2597.0812382469
 20
626.743413574
 10
2596.6073770903
 20
627.284309783
 10
2596.5001924524
 20
627.8751437717
 10
2596.771299452
 20
628.4518895097
 10
2597.3913194389
 20
628.9520476473
 10
2598.293063627
 20
629.3214182893
 10
2599.3788140415
 20
629.5199743955
 10
2600.5309127778
 20
629.5261993308
 10
2601.6245120613
 20
629.3394185268
  0
LWPOLYLINE
  5
326
330
1F
100
AcDbEntity
  8
0
  6
Continuous
 62
     7
370
    15
100
AcDbPolyline
 90
       20
 70
   128
 43
0.0
 10
2614.9642428707
 20
627.4610059689
 10
2616.0578421541
 20
627.2742251649
 10
2617.2099408905
 20
627.2804501002
 10
2618.2956913049
 20
627.4790062064
 10
2619.1974354931
 20
627.8483768484
 10
2619.81745548
 20
628.348534986
 10
2620.0885624795
 20
628.925280724
 10
2619.9813778417
 20
629.5161147127
 10
2619.507516685
 20
630.0570109217
 10
2618.7183292187
 20
630.4893548537
 10
2617.6993361501
 20
630.7662953354
 10
2616.5609611895
 20
630.8578215683
 10
2615.4265649276
 20
630.7540152649
 10
2614.4190768014
 20
630.4661254489
 10
2613.6476737822
 20
630.025349449
 10
2613.1959493566
 20
629.4794521841
 10
2613.1128548753
 20
628.8875900932
 10
2613.4073949148
 20
628.3139006177
 10
2614.0476514915
 20
627.8205519139
 10
2614.9642428707
 20
627.4610059689
  0
LWPOLYLINE
  5
327
330
1F
100
AcDbEntity
  8
0
  6
Continuous
 62
     7
370
    15
100
AcDbPolyline
 90
       21
 70
   128
 43
0.0
 10
2575.1643061962
 20
636.6209992633
 10
2576.0797321291
 20
636.2680310011
 10
2576.73857698
 20
635.7866431468
 10
2577.0763484243
 20
635.2239572977
 10
2577.0599830399
 20
634.6350530651
 10
2576.6910827844
 20
634.0775764984
 10
2576.0057581853
 20
633.6060972882
 10
2575.0710935891
 20
633.2667671046
 10
2573.9785804788
 20
633.0928019501
 10
2572.8351616496
 20
633.1012307462
 10
2571.7527629031
 20
633.2912284236
 10
2570.8373369703
 20
633.6441966858
 10
2570.1784921194
 20
634.1255845401
 10
2569.840720675
 20
634.6882703893
 10
2569.8570860595
 20
635.2771746219
 10
2570.225986315
 20
635.8346511885
 10
2570.9113109141
 20
636.3061303987
 10
2571.8459755103
 20
636.6454605824
 10
2572.9384886206
 20
636.8194257369
 10
2574.0819074498
 20
636.8109969407
 10
2575.1643061962
 20
636.6209992633
  0
LWPOLYLINE
  5
328
330
1F
100
AcDbEntity
  8
0
  6
Continuous
 62
     7
370
    15
100
AcDbPolyline
 90
       21
 70
   128
 43
0.0
 10
2588.3593614351
 20
634.6013789134
 10
2589.4417601815
 20
634.411381236
 10
2590.5851790108
 20
634.4029524399
 10
2591.677692121
 20
634.5769175944
 10
2592.6123567172
 20
634.916247778
 10
2593.2976813164
 20
635.3877269882
 10
2593.6665815718
 20
635.9452035549
 10
2593.6829469563
 20
636.5341077875
 10
2593.3451755119
 20
637.0967936366
 10
2592.686330661
 20
637.5781814909
 10
2591.7709047282
 20
637.9311497531
 10
2590.6885059817
 20
638.1211474305
 10
2589.5450871525
 20
638.1295762267
 10
2588.4525740422
 20
637.9556110722
 10
2587.5179094461
 20
637.6162808885
 10
2586.8325848469
 20
637.1448016783
 10
2586.4636845914
 20
636.5873251117
 10
2586.447319207
 20
635.9984208791
 10
2586.7850906514
 20
635.4357350299
 10
2587.4439355022
 20
634.9543471756
 10
2588.3593614351
 20
634.6013789134
  0
LWPOLYLINE
  5
329
330
1F
100
AcDbEntity
  8
0
  6
Continuous
 62
     7
370
    15
100
AcDbPolyline
 90
       20
 70
   128
 43
0.0
 10
2575.0919684109
 20
636.5503953673
 10
2576.0085597902
 20
636.1908494224
 10
2576.6488163669
 20
635.6975007186
 10
2576.9433564063
 20
635.123811243
 10
2576.8602619251
 20
634.5319491522
 10
2576.4085374994
 20
633.9860518872
 10
2575.6371344802
 20
633.5452758873
 10
2574.629646354
 20
633.2573860713
 10
2573.4952500922
 20
633.1535797679
 10
2572.3568751316
 20
633.2451060008
 10
2571.337882063
 20
633.5220464825
 10
2570.5486945966
 20
633.9543904146
 10
2570.07483344
 20
634.4952866235
 10
2569.9676488021
 20
635.0861206122
 10
2570.2387558017
 20
635.6628663502
 10
2570.8587757886
 20
636.1630244878
 10
2571.7605199767
 20
636.5323951299
 10
2572.8462703912
 20
636.730951236
 10
2573.9983691275
 20
636.7371761713
 10
2575.0919684109
 20
636.5503953673
  0
LWPOLYLINE
  5
32A
330
1F
100
AcDbEntity
  8
0
  6
Continuous
 62
     7
370
    15
100
AcDbPolyline
 90
       20
 70
   128
 43
0.0
 10
2588.4316992204
 20
634.6719828095
 10
2589.5252985038
 20
634.4852020055
 10
2590.6773972401
 20
634.4914269407
 10
2591.7631476546
 20
634.6899830469
 10
2592.6648918427
 20
635.059353689
 10
2593.2849118297
 20
635.5595118265
 10
2593.5560188292
 20
636.1362575645
 10
2593.4488341914
 20
636.7270915532
 10
2592.9749730347
 20
637.2679877622
 10
2592.1857855683
 20
637.7003316943
 10
2591.1667924997
 20
637.9772721759
 10
2590.0284175391
 20
638.0687984088
 10
2588.8940212773
 20
637.9649921054
 10
2587.8865331511
 20
637.6771022895
 10
2587.1151301319
 20
637.2363262895
 10
2586.6634057062
 20
636.6904290246
 10
2586.580311225
 20
636.0985669337
 10
2586.8748512645
 20
635.5248774582
 10
2587.5151078412
 20
635.0315287544
 10
2588.4316992204
 20
634.6719828095
  0
LWPOLYLINE
  5
32B
330
1F
100
AcDbEntity
  8
0
  6
Continuous
 62
     7
370
    15
100
AcDbPolyline
 90
        3
 70
   128
 43
0.0
 10
2665.1038158869
 20
578.9599764888
 10
2665.022046962
 20
580.1650640036
 10
2664.8439053191
 20
580.9627411033
  0
ARC
  5
32C
330
1F
100
AcDbEntity
  8
0
  6
Continuous
 62
     7
370
    15
100
AcDbCircle
 10
2651.9336104912
 20
578.8664665907
 30
0.0
 40
13.17053735679984
100
AcDbArc
 50
319.5092118892
 51
0.4067994627
  0
LWPOLYLINE
  5
32D
330
1F
100
AcDbEntity
  8
0
  6
Continuous
 62
     7
370
    15
100
AcDbPolyline
 90
       21
 70
   128
 43
0.0
 10
2548.6317625459
 20
643.8319761039
 10
2549.5471884788
 20
643.4790078416
 10
2550.2060333296
 20
642.9976199873
 10
2550.543804774
 20
642.4349341382
 10
2550.5274393895
 20
641.8460299056
 10
2550.1585391341
 20
641.2885533389
 10
2549.4732145349
 20
640.8170741287
 10
2548.5385499388
 20
640.4777439451
 10
2547.4460368285
 20
640.3037787906
 10
2546.3026179993
 20
640.3122075867
 10
2545.2202192528
 20
640.5022052641
 10
2544.3047933199
 20
640.8551735264
 10
2543.6459484691
 20
641.3365613806
 10
2543.3081770247
 20
641.8992472298
 10
2543.3245424092
 20
642.4881514624
 10
2543.6934426646
 20
643.0456280291
 10
2544.3787672638
 20
643.5171072393
 10
2545.3134318599
 20
643.8564374229
 10
2546.4059449702
 20
644.0304025774
 10
2547.5493637994
 20
644.0219737813
 10
2548.6317625459
 20
643.8319761039
  0
LWPOLYLINE
  5
32E
330
1F
100
AcDbEntity
  8
0
  6
Continuous
 62
     7
370
    15
100
AcDbPolyline
 90
       21
 70
   128
 43
0.0
 10
2561.8268177848
 20
641.8123557539
 10
2562.9092165312
 20
641.6223580765
 10
2564.0526353604
 20
641.6139292804
 10
2565.1451484707
 20
641.7878944349
 10
2566.0798130669
 20
642.1272246185
 10
2566.765137666
 20
642.5987038287
 10
2567.1340379215
 20
643.1561803954
 10
2567.150403306
 20
643.745084628
 10
2566.8126318616
 20
644.3077704771
 10
2566.1537870107
 20
644.7891583314
 10
2565.2383610778
 20
645.1421265937
 10
2564.1559623314
 20
645.3321242711
 10
2563.0125435022
 20
645.3405530672
 10
2561.9200303919
 20
645.1665879127
 10
2560.9853657957
 20
644.8272577291
 10
2560.3000411966
 20
644.3557785189
 10
2559.9311409411
 20
643.7983019522
 10
2559.9147755567
 20
643.2093977196
 10
2560.252547001
 20
642.6467118705
 10
2560.9113918519
 20
642.1653240162
 10
2561.8268177848
 20
641.8123557539
  0
LWPOLYLINE
  5
32F
330
1F
100
AcDbEntity
  8
0
  6
Continuous
 62
     7
370
    15
100
AcDbPolyline
 90
       20
 70
   128
 43
0.0
 10
2548.5594247606
 20
643.7613722078
 10
2549.4760161398
 20
643.4018262629
 10
2550.1162727165
 20
642.9084775591
 10
2550.410812756
 20
642.3347880836
 10
2550.3277182747
 20
641.7429259927
 10
2549.8759938491
 20
641.1970287277
 10
2549.1045908299
 20
640.7562527278
 10
2548.0971027037
 20
640.4683629118
 10
2546.9627064418
 20
640.3645566084
 10
2545.8243314813
 20
640.4560828413
 10
2544.8053384126
 20
640.733023323
 10
2544.0161509463
 20
641.1653672551
 10
2543.5422897896
 20
641.706263464
 10
2543.4351051518
 20
642.2970974527
 10
2543.7062121513
 20
642.8738431908
 10
2544.3262321383
 20
643.3740013283
 10
2545.2279763264
 20
643.7433719704
 10
2546.3137267409
 20
643.9419280766
 10
2547.4658254772
 20
643.9481530118
 10
2548.5594247606
 20
643.7613722078
  0
LWPOLYLINE
  5
330
330
1F
100
AcDbEntity
  8
0
  6
Continuous
 62
     7
370
    15
100
AcDbPolyline
 90
       20
 70
   128
 43
0.0
 10
2561.8991555701
 20
641.88295965
 10
2562.9927548535
 20
641.696178846
 10
2564.1448535898
 20
641.7024037812
 10
2565.2306040043
 20
641.9009598874
 10
2566.1323481924
 20
642.2703305295
 10
2566.7523681793
 20
642.770488667
 10
2567.0234751789
 20
643.3472344051
 10
2566.916290541
 20
643.9380683938
 10
2566.4424293844
 20
644.4789646027
 10
2565.653241918
 20
644.9113085348
 10
2564.6342488494
 20
645.1882490165
 10
2563.4958738888
 20
645.2797752493
 10
2562.361477627
 20
645.175968946
 10
2561.3539895008
 20
644.88807913
 10
2560.5825864815
 20
644.44730313
 10
2560.1308620559
 20
643.9014058651
 10
2560.0477675747
 20
643.3095437742
 10
2560.3423076141
 20
642.7358542987
 10
2560.9825641908
 20
642.2425055949
 10
2561.8991555701
 20
641.88295965
  0
LWPOLYLINE
  5
331
330
1F
100
AcDbEntity
  8
0
  6
Continuous
 62
     7
370
    15
100
AcDbPolyline
 90
       21
 70
   128
 43
0.0
 10
2522.0992188956
 20
651.0429529444
 10
2523.0146448285
 20
650.6899846821
 10
2523.6734896793
 20
650.2085968278
 10
2524.0112611237
 20
649.6459109787
 10
2523.9948957392
 20
649.0570067461
 10
2523.6259954838
 20
648.4995301794
 10
2522.9406708846
 20
648.0280509692
 10
2522.0060062885
 20
647.6887207856
 10
2520.9134931782
 20
647.5147556311
 10
2519.770074349
 20
647.5231844272
 10
2518.6876756025
 20
647.7131821046
 10
2517.7722496696
 20
648.0661503669
 10
2517.1134048188
 20
648.5475382212
 10
2516.7756333744
 20
649.1102240703
 10
2516.7919987589
 20
649.6991283029
 10
2517.1608990143
 20
650.2566048696
 10
2517.8462236135
 20
650.7280840798
 10
2518.7808882096
 20
651.0674142634
 10
2519.8734013199
 20
651.2413794179
 10
2521.0168201491
 20
651.2329506218
 10
2522.0992188956
 20
651.0429529444
  0
LWPOLYLINE
  5
332
330
1F
100
AcDbEntity
  8
0
  6
Continuous
 62
     7
370
    15
100
AcDbPolyline
 90
       21
 70
   128
 43
0.0
 10
2535.2942741344
 20
649.0233325944
 10
2536.3766728809
 20
648.833334917
 10
2537.5200917101
 20
648.8249061209
 10
2538.6126048204
 20
648.9988712754
 10
2539.5472694166
 20
649.338201459
 10
2540.2325940157
 20
649.8096806692
 10
2540.6014942712
 20
650.3671572359
 10
2540.6178596556
 20
650.9560614685
 10
2540.2800882113
 20
651.5187473177
 10
2539.6212433604
 20
652.0001351719
 10
2538.7058174275
 20
652.3531034342
 10
2537.6234186811
 20
652.5431011116
 10
2536.4799998519
 20
652.5515299077
 10
2535.3874867416
 20
652.3775647532
 10
2534.4528221454
 20
652.0382345696
 10
2533.7674975463
 20
651.5667553594
 10
2533.3985972908
 20
651.0092787927
 10
2533.3822319063
 20
650.4203745601
 10
2533.7200033507
 20
649.857688711
 10
2534.3788482016
 20
649.3763008567
 10
2535.2942741344
 20
649.0233325944
  0
LWPOLYLINE
  5
333
330
1F
100
AcDbEntity
  8
0
  6
Continuous
 62
     7
370
    15
100
AcDbPolyline
 90
       20
 70
   128
 43
0.0
 10
2522.0268811103
 20
650.9723490483
 10
2522.9434724895
 20
650.6128031034
 10
2523.5837290662
 20
650.1194543996
 10
2523.8782691057
 20
649.5457649241
 10
2523.7951746244
 20
648.9539028332
 10
2523.3434501988
 20
648.4080055683
 10
2522.5720471795
 20
647.9672295683
 10
2521.5645590534
 20
647.6793397523
 10
2520.4301627915
 20
647.575533449
 10
2519.2917878309
 20
647.6670596818
 10
2518.2727947623
 20
647.9440001635
 10
2517.4836072959
 20
648.3763440956
 10
2517.0097461393
 20
648.9172403045
 10
2516.9025615014
 20
649.5080742932
 10
2517.173668501
 20
650.0848200313
 10
2517.7936884879
 20
650.5849781688
 10
2518.695432676
 20
650.9543488109
 10
2519.7811830905
 20
651.1529049171
 10
2520.9332818269
 20
651.1591298523
 10
2522.0268811103
 20
650.9723490483
  0
LWPOLYLINE
  5
334
330
1F
100
AcDbEntity
  8
0
  6
Continuous
 62
     7
370
    15
100
AcDbPolyline
 90
       20
 70
   128
 43
0.0
 10
2535.3666119197
 20
649.0939364905
 10
2536.4602112032
 20
648.9071556865
 10
2537.6123099395
 20
648.9133806217
 10
2538.698060354
 20
649.1119367279
 10
2539.5998045421
 20
649.48130737
 10
2540.219824529
 20
649.9814655075
 10
2540.4909315286
 20
650.5582112456
 10
2540.3837468907
 20
651.1490452343
 10
2539.9098857341
 20
651.6899414432
 10
2539.1206982677
 20
652.1222853753
 10
2538.1017051991
 20
652.399225857
 10
2536.9633302385
 20
652.4907520899
 10
2535.8289339767
 20
652.3869457865
 10
2534.8214458505
 20
652.0990559705
 10
2534.0500428312
 20
651.6582799706
 10
2533.5983184056
 20
651.1123827056
 10
2533.5152239243
 20
650.5205206147
 10
2533.8097639638
 20
649.9468311392
 10
2534.4500205405
 20
649.4534824354
 10
2535.3666119197
 20
649.0939364905
  0
LINE
  5
335
330
1F
100
AcDbEntity
  8
0
  6
Continuous
 62
     7
370
    15
100
AcDbLine
 10
2602.2703637902
 20
750.9478302752
 30
0.0
 11
2602.2703637902
 21
752.6621648766
 31
0.0
  0
LINE
  5
336
330
1F
100
AcDbEntity
  8
0
  6
Continuous
 62
     7
370
    15
100
AcDbLine
 10
2606.2372745961
 20
748.5267227496
 30
0.0
 11
2606.2372745961
 21
749.8697089187
 31
0.0
  0
LWPOLYLINE
  5
337
330
1F
100
AcDbEntity
  8
0
  6
Continuous
 62
     7
370
    15
100
AcDbPolyline
 90
       21
 70
   128
 43
0.0
 10
2495.5666752453
 20
658.2539297849
 10
2496.4821011781
 20
657.9009615227
 10
2497.140946029
 20
657.4195736684
 10
2497.4787174734
 20
656.8568878192
 10
2497.4623520889
 20
656.2679835866
 10
2497.0934518334
 20
655.71050702
 10
2496.4081272343
 20
655.2390278098
 10
2495.4734626381
 20
654.8996976261
 10
2494.3809495278
 20
654.7257324716
 10
2493.2375306986
 20
654.7341612678
 10
2492.1551319522
 20
654.9241589452
 10
2491.2397060193
 20
655.2771272074
 10
2490.5808611684
 20
655.7585150617
 10
2490.2430897241
 20
656.3212009108
 10
2490.2594551085
 20
656.9101051434
 10
2490.628355364
 20
657.4675817101
 10
2491.3136799631
 20
657.9390609203
 10
2492.2483445593
 20
658.2783911039
 10
2493.3408576696
 20
658.4523562584
 10
2494.4842764988
 20
658.4439274623
 10
2495.5666752453
 20
658.2539297849
  0
LWPOLYLINE
  5
338
330
1F
100
AcDbEntity
  8
0
  6
Continuous
 62
     7
370
    15
100
AcDbPolyline
 90
       21
 70
   128
 43
0.0
 10
2508.7617304841
 20
656.234309435
 10
2509.8441292306
 20
656.0443117576
 10
2510.9875480598
 20
656.0358829614
 10
2512.0800611701
 20
656.2098481159
 10
2513.0147257662
 20
656.5491782996
 10
2513.7000503654
 20
657.0206575098
 10
2514.0689506208
 20
657.5781340764
 10
2514.0853160053
 20
658.167038309
 10
2513.7475445609
 20
658.7297241582
 10
2513.0886997101
 20
659.2111120125
 10
2512.1732737772
 20
659.5640802747
 10
2511.0908750307
 20
659.7540779521
 10
2509.9474562015
 20
659.7625067482
 10
2508.8549430912
 20
659.5885415937
 10
2507.9202784951
 20
659.2492114101
 10
2507.2349538959
 20
658.7777321999
 10
2506.8660536405
 20
658.2202556332
 10
2506.849688256
 20
657.6313514006
 10
2507.1874597004
 20
657.0686655515
 10
2507.8463045512
 20
656.5872776972
 10
2508.7617304841
 20
656.234309435
  0
LWPOLYLINE
  5
339
330
1F
100
AcDbEntity
  8
0
  6
Continuous
 62
     7
370
    15
100
AcDbPolyline
 90
       20
 70
   128
 43
0.0
 10
2495.49433746
 20
658.1833258888
 10
2496.4109288392
 20
657.8237799439
 10
2497.0511854159
 20
657.3304312401
 10
2497.3457254554
 20
656.7567417646
 10
2497.2626309741
 20
656.1648796737
 10
2496.8109065485
 20
655.6189824088
 10
2496.0395035292
 20
655.1782064088
 10
2495.032015403
 20
654.8903165929
 10
2493.8976191412
 20
654.7865102895
 10
2492.7592441806
 20
654.8780365224
 10
2491.740251112
 20
655.154977004
 10
2490.9510636456
 20
655.5873209361
 10
2490.477202489
 20
656.1282171451
 10
2490.3700178511
 20
656.7190511338
 10
2490.6411248507
 20
657.2957968718
 10
2491.2611448376
 20
657.7959550093
 10
2492.1628890257
 20
658.1653256514
 10
2493.2486394402
 20
658.3638817576
 10
2494.4007381765
 20
658.3701066928
 10
2495.49433746
 20
658.1833258888
  0
LWPOLYLINE
  5
33A
330
1F
100
AcDbEntity
  8
0
  6
Continuous
 62
     7
370
    15
100
AcDbPolyline
 90
       20
 70
   128
 43
0.0
 10
2508.8340682694
 20
656.304913331
 10
2509.9276675528
 20
656.118132527
 10
2511.0797662892
 20
656.1243574623
 10
2512.1655167037
 20
656.3229135684
 10
2513.0672608918
 20
656.6922842105
 10
2513.6872808787
 20
657.1924423481
 10
2513.9583878782
 20
657.7691880861
 10
2513.8512032404
 20
658.3600220748
 10
2513.3773420838
 20
658.9009182837
 10
2512.5881546174
 20
659.3332622158
 10
2511.5691615488
 20
659.6102026975
 10
2510.4307865882
 20
659.7017289304
 10
2509.2963903263
 20
659.597922627
 10
2508.2889022002
 20
659.310032811
 10
2507.5174991809
 20
658.8692568111
 10
2507.0657747553
 20
658.3233595461
 10
2506.982680274
 20
657.7314974553
 10
2507.2772203135
 20
657.1578079797
 10
2507.9174768902
 20
656.6644592759
 10
2508.8340682694
 20
656.304913331
  0
LINE
  5
33B
330
1F
100
AcDbEntity
  8
0
  6
Continuous
 62
     7
370
    15
100
AcDbLine
 10
2574.4111929573
 20
758.5193559577
 30
0.0
 11
2574.4111929573
 21
760.2336905591
 31
0.0
  0
LINE
  5
33C
330
1F
100
AcDbEntity
  8
0
  6
Continuous
 62
     7
370
    15
100
AcDbLine
 10
2578.3781037633
 20
756.0982484321
 30
0.0
 11
2578.3781037633
 21
757.4412346013
 31
0.0
  0
LWPOLYLINE
  5
33D
330
1F
100
AcDbEntity
  8
0
  6
Continuous
 62
     7
370
    15
100
AcDbPolyline
 90
       21
 70
   128
 43
0.0
 10
2469.0341315949
 20
665.4649066254
 10
2469.9495575278
 20
665.1119383632
 10
2470.6084023787
 20
664.6305505089
 10
2470.946173823
 20
664.0678646597
 10
2470.9298084386
 20
663.4789604271
 10
2470.5609081831
 20
662.9214838605
 10
2469.875583584
 20
662.4500046503
 10
2468.9409189878
 20
662.1106744666
 10
2467.8484058775
 20
661.9367093122
 10
2466.7049870483
 20
661.9451381083
 10
2465.6225883019
 20
662.1351357857
 10
2464.707162369
 20
662.4881040479
 10
2464.0483175181
 20
662.9694919022
 10
2463.7105460737
 20
663.5321777513
 10
2463.7269114582
 20
664.1210819839
 10
2464.0958117137
 20
664.6785585506
 10
2464.7811363128
 20
665.1500377608
 10
2465.715800909
 20
665.4893679444
 10
2466.8083140193
 20
665.6633330989
 10
2467.9517328485
 20
665.6549043028
 10
2469.0341315949
 20
665.4649066254
  0
LWPOLYLINE
  5
33E
330
1F
100
AcDbEntity
  8
0
  6
Continuous
 62
     7
370
    15
100
AcDbPolyline
 90
       21
 70
   128
 43
0.0
 10
2482.2291868338
 20
663.4452862755
 10
2483.3115855803
 20
663.2552885981
 10
2484.4550044095
 20
663.246859802
 10
2485.5475175198
 20
663.4208249564
 10
2486.4821821159
 20
663.7601551401
 10
2487.1675067151
 20
664.2316343503
 10
2487.5364069705
 20
664.7891109169
 10
2487.552772355
 20
665.3780151496
 10
2487.2150009106
 20
665.9407009987
 10
2486.5561560598
 20
666.422088853
 10
2485.6407301269
 20
666.7750571152
 10
2484.5583313804
 20
666.9650547926
 10
2483.4149125512
 20
666.9734835887
 10
2482.3223994409
 20
666.7995184343
 10
2481.3877348448
 20
666.4601882506
 10
2480.7024102456
 20
665.9887090404
 10
2480.3335099902
 20
665.4312324738
 10
2480.3171446057
 20
664.8423282411
 10
2480.6549160501
 20
664.279642392
 10
2481.3137609009
 20
663.7982545377
 10
2482.2291868338
 20
663.4452862755
  0
LWPOLYLINE
  5
33F
330
1F
100
AcDbEntity
  8
0
  6
Continuous
 62
     7
370
    15
100
AcDbPolyline
 90
       20
 70
   128
 43
0.0
 10
2468.9617938096
 20
665.3943027294
 10
2469.8783851889
 20
665.0347567844
 10
2470.5186417656
 20
664.5414080806
 10
2470.813181805
 20
663.9677186051
 10
2470.7300873238
 20
663.3758565142
 10
2470.2783628981
 20
662.8299592493
 10
2469.5069598789
 20
662.3891832494
 10
2468.4994717527
 20
662.1012934334
 10
2467.3650754909
 20
661.99748713
 10
2466.2267005303
 20
662.0890133629
 10
2465.2077074617
 20
662.3659538446
 10
2464.4185199953
 20
662.7982977766
 10
2463.9446588387
 20
663.3391939856
 10
2463.8374742008
 20
663.9300279743
 10
2464.1085812004
 20
664.5067737123
 10
2464.7286011873
 20
665.0069318499
 10
2465.6303453754
 20
665.3763024919
 10
2466.7160957899
 20
665.5748585981
 10
2467.8681945262
 20
665.5810835334
 10
2468.9617938096
 20
665.3943027294
  0
LWPOLYLINE
  5
340
330
1F
100
AcDbEntity
  8
0
  6
Continuous
 62
     7
370
    15
100
AcDbPolyline
 90
       20
 70
   128
 43
0.0
 10
2482.3015246191
 20
663.5158901715
 10
2483.3951239025
 20
663.3291093675
 10
2484.5472226388
 20
663.3353343028
 10
2485.6329730533
 20
663.533890409
 10
2486.5347172414
 20
663.903261051
 10
2487.1547372284
 20
664.4034191886
 10
2487.4258442279
 20
664.9801649266
 10
2487.3186595901
 20
665.5709989153
 10
2486.8447984334
 20
666.1118951243
 10
2486.0556109671
 20
666.5442390563
 10
2485.0366178984
 20
666.821179538
 10
2483.8982429379
 20
666.9127057709
 10
2482.763846676
 20
666.8088994675
 10
2481.7563585498
 20
666.5210096515
 10
2480.9849555306
 20
666.0802336516
 10
2480.533231105
 20
665.5343363866
 10
2480.4501366237
 20
664.9424742958
 10
2480.7446766632
 20
664.3687848203
 10
2481.3849332399
 20
663.8754361165
 10
2482.3015246191
 20
663.5158901715
  0
LWPOLYLINE
  5
341
330
1F
100
AcDbEntity
  8
0
  6
Continuous
 62
     7
370
    15
100
AcDbPolyline
 90
       21
 70
   128
 43
0.0
 10
2442.5015879446
 20
672.6758834659
 10
2443.4170138775
 20
672.3229152037
 10
2444.0758587283
 20
671.8415273494
 10
2444.4136301727
 20
671.2788415003
 10
2444.3972647883
 20
670.6899372676
 10
2444.0283645328
 20
670.132460701
 10
2443.3430399336
 20
669.6609814908
 10
2442.4083753375
 20
669.3216513071
 10
2441.3158622272
 20
669.1476861527
 10
2440.172443398
 20
669.1561149488
 10
2439.0900446515
 20
669.3461126262
 10
2438.1746187186
 20
669.6990808884
 10
2437.5157738678
 20
670.1804687427
 10
2437.1780024234
 20
670.7431545919
 10
2437.1943678079
 20
671.3320588245
 10
2437.5632680633
 20
671.8895353911
 10
2438.2485926625
 20
672.3610146013
 10
2439.1832572586
 20
672.700344785
 10
2440.2757703689
 20
672.8743099394
 10
2441.4191891982
 20
672.8658811433
 10
2442.5015879446
 20
672.6758834659
  0
LINE
  5
342
330
1F
100
AcDbEntity
  8
0
  6
Continuous
 62
     7
370
    15
100
AcDbLine
 10
2546.5520221245
 20
766.0908816403
 30
0.0
 11
2546.5520221245
 21
767.8052162417
 31
0.0
  0
LINE
  5
343
330
1F
100
AcDbEntity
  8
0
  6
Continuous
 62
     7
370
    15
100
AcDbLine
 10
2550.5189329304
 20
763.6697741147
 30
0.0
 11
2550.5189329304
 21
765.0127602838
 31
0.0
  0
LWPOLYLINE
  5
344
330
1F
100
AcDbEntity
  8
0
  6
Continuous
 62
     7
370
    15
100
AcDbPolyline
 90
       21
 70
   128
 43
0.0
 10
2455.6966431835
 20
670.656263116
 10
2456.7790419299
 20
670.4662654386
 10
2457.9224607591
 20
670.4578366425
 10
2459.0149738694
 20
670.631801797
 10
2459.9496384656
 20
670.9711319806
 10
2460.6349630647
 20
671.4426111908
 10
2461.0038633202
 20
672.0000877575
 10
2461.0202287047
 20
672.5889919901
 10
2460.6824572603
 20
673.1516778392
 10
2460.0236124094
 20
673.6330656935
 10
2459.1081864766
 20
673.9860339557
 10
2458.0257877301
 20
674.1760316331
 10
2456.8823689009
 20
674.1844604292
 10
2455.7898557906
 20
674.0104952748
 10
2454.8551911944
 20
673.6711650911
 10
2454.1698665953
 20
673.1996858809
 10
2453.8009663398
 20
672.6422093143
 10
2453.7846009554
 20
672.0533050817
 10
2454.1223723997
 20
671.4906192325
 10
2454.7812172506
 20
671.0092313782
 10
2455.6966431835
 20
670.656263116
  0
LWPOLYLINE
  5
345
330
1F
100
AcDbEntity
  8
0
  6
Continuous
 62
     7
370
    15
100
AcDbPolyline
 90
       20
 70
   128
 43
0.0
 10
2442.4292501593
 20
672.6052795699
 10
2443.3458415385
 20
672.2457336249
 10
2443.9860981152
 20
671.7523849211
 10
2444.2806381547
 20
671.1786954456
 10
2444.1975436735
 20
670.5868333548
 10
2443.7458192478
 20
670.0409360898
 10
2442.9744162286
 20
669.6001600899
 10
2441.9669281024
 20
669.3122702739
 10
2440.8325318405
 20
669.2084639705
 10
2439.69415688
 20
669.2999902034
 10
2438.6751638113
 20
669.5769306851
 10
2437.885976345
 20
670.0092746172
 10
2437.4121151883
 20
670.5501708261
 10
2437.3049305505
 20
671.1410048148
 10
2437.57603755
 20
671.7177505528
 10
2438.196057537
 20
672.2179086904
 10
2439.0978017251
 20
672.5872793325
 10
2440.1835521396
 20
672.7858354386
 10
2441.3356508759
 20
672.7920603739
 10
2442.4292501593
 20
672.6052795699
  0
LWPOLYLINE
  5
346
330
1F
100
AcDbEntity
  8
0
  6
Continuous
 62
     7
370
    15
100
AcDbPolyline
 90
       20
 70
   128
 43
0.0
 10
2455.7689809688
 20
670.7268670121
 10
2456.8625802522
 20
670.5400862081
 10
2458.0146789885
 20
670.5463111433
 10
2459.100429403
 20
670.7448672495
 10
2460.0021735911
 20
671.1142378916
 10
2460.622193578
 20
671.6143960291
 10
2460.8933005776
 20
672.1911417671
 10
2460.7861159397
 20
672.7819757558
 10
2460.3122547831
 20
673.3228719648
 10
2459.5230673167
 20
673.7552158969
 10
2458.5040742481
 20
674.0321563785
 10
2457.3656992875
 20
674.1236826114
 10
2456.2313030257
 20
674.019876308
 10
2455.2238148995
 20
673.7319864921
 10
2454.4524118803
 20
673.2912104921
 10
2454.0006874546
 20
672.7453132272
 10
2453.9175929734
 20
672.1534511363
 10
2454.2121330128
 20
671.5797616608
 10
2454.8523895895
 20
671.086412957
 10
2455.7689809688
 20
670.7268670121
  0
LWPOLYLINE
  5
347
330
1F
100
AcDbEntity
  8
0
  6
Continuous
 62
     7
370
    15
100
AcDbPolyline
 90
       21
 70
   128
 43
0.0
 10
2415.9690442943
 20
679.8868603064
 10
2416.8844702272
 20
679.5338920442
 10
2417.543315078
 20
679.0525041899
 10
2417.8810865224
 20
678.4898183408
 10
2417.8647211379
 20
677.9009141082
 10
2417.4958208825
 20
677.3434375415
 10
2416.8104962833
 20
676.8719583313
 10
2415.8758316872
 20
676.5326281477
 10
2414.7833185769
 20
676.3586629932
 10
2413.6398997477
 20
676.3670917893
 10
2412.5575010012
 20
676.5570894667
 10
2411.6420750683
 20
676.9100577289
 10
2410.9832302175
 20
677.3914455832
 10
2410.6454587731
 20
677.9541314324
 10
2410.6618241576
 20
678.543035665
 10
2411.030724413
 20
679.1005122316
 10
2411.7160490122
 20
679.5719914418
 10
2412.6507136083
 20
679.9113216255
 10
2413.7432267186
 20
680.08528678
 10
2414.8866455478
 20
680.0768579838
 10
2415.9690442943
 20
679.8868603064
  0
LINE
  5
348
330
1F
100
AcDbEntity
  8
0
  6
Continuous
 62
     7
370
    15
100
AcDbLine
 10
2518.6928512917
 20
773.6624073228
 30
0.0
 11
2518.6928512917
 21
775.3767419242
 31
0.0
  0
LINE
  5
349
330
1F
100
AcDbEntity
  8
0
  6
Continuous
 62
     7
370
    15
100
AcDbLine
 10
2522.6597620976
 20
771.2412997972
 30
0.0
 11
2522.6597620976
 21
772.5842859664
 31
0.0
  0
LWPOLYLINE
  5
34A
330
1F
100
AcDbEntity
  8
0
  6
Continuous
 62
     7
370
    15
100
AcDbPolyline
 90
       21
 70
   128
 43
0.0
 10
2429.1640995332
 20
677.8672399565
 10
2430.2464982796
 20
677.6772422791
 10
2431.3899171088
 20
677.668813483
 10
2432.4824302191
 20
677.8427786375
 10
2433.4170948153
 20
678.1821088211
 10
2434.1024194144
 20
678.6535880313
 10
2434.4713196699
 20
679.211064598
 10
2434.4876850543
 20
679.7999688306
 10
2434.14991361
 20
680.3626546797
 10
2433.4910687591
 20
680.844042534
 10
2432.5756428262
 20
681.1970107963
 10
2431.4932440798
 20
681.3870084737
 10
2430.3498252506
 20
681.3954372698
 10
2429.2573121403
 20
681.2214721153
 10
2428.3226475441
 20
680.8821419316
 10
2427.637322945
 20
680.4106627215
 10
2427.2684226895
 20
679.8531861548
 10
2427.252057305
 20
679.2642819222
 10
2427.5898287494
 20
678.701596073
 10
2428.2486736003
 20
678.2202082188
 10
2429.1640995332
 20
677.8672399565
  0
LWPOLYLINE
  5
34B
330
1F
100
AcDbEntity
  8
0
  6
Continuous
 62
     7
370
    15
100
AcDbPolyline
 90
       20
 70
   128
 43
0.0
 10
2415.896706509
 20
679.8162564104
 10
2416.8132978882
 20
679.4567104655
 10
2417.4535544649
 20
678.9633617617
 10
2417.7480945044
 20
678.3896722861
 10
2417.6650000231
 20
677.7978101953
 10
2417.2132755975
 20
677.2519129303
 10
2416.4418725783
 20
676.8111369304
 10
2415.4343844521
 20
676.5232471144
 10
2414.2999881902
 20
676.419440811
 10
2413.1616132296
 20
676.5109670439
 10
2412.142620161
 20
676.7879075256
 10
2411.3534326947
 20
677.2202514577
 10
2410.879571538
 20
677.7611476666
 10
2410.7723869002
 20
678.3519816553
 10
2411.0434938997
 20
678.9287273934
 10
2411.6635138866
 20
679.4288855309
 10
2412.5652580747
 20
679.798256173
 10
2413.6510084892
 20
679.9968122791
 10
2414.8031072256
 20
680.0030372144
 10
2415.896706509
 20
679.8162564104
  0
LWPOLYLINE
  5
34C
330
1F
100
AcDbEntity
  8
0
  6
Continuous
 62
     7
370
    15
100
AcDbPolyline
 90
       20
 70
   128
 43
0.0
 10
2429.2364373184
 20
677.9378438526
 10
2430.3300366019
 20
677.7510630486
 10
2431.4821353382
 20
677.7572879838
 10
2432.5678857527
 20
677.95584409
 10
2433.4696299408
 20
678.3252147321
 10
2434.0896499277
 20
678.8253728696
 10
2434.3607569273
 20
679.4021186076
 10
2434.2535722894
 20
679.9929525963
 10
2433.7797111328
 20
680.5338488053
 10
2432.9905236664
 20
680.9661927374
 10
2431.9715305978
 20
681.243133219
 10
2430.8331556372
 20
681.3346594519
 10
2429.6987593754
 20
681.2308531486
 10
2428.6912712492
 20
680.9429633326
 10
2427.9198682299
 20
680.5021873326
 10
2427.4681438043
 20
679.9562900677
 10
2427.385049323
 20
679.3644279768
 10
2427.6795893625
 20
678.7907385013
 10
2428.3198459392
 20
678.2973897975
 10
2429.2364373184
 20
677.9378438526
  0
LWPOLYLINE
  5
34D
330
1F
100
AcDbEntity
  8
0
  6
Continuous
 62
     7
370
    15
100
AcDbPolyline
 90
       21
 70
   128
 43
0.0
 10
2389.436500644
 20
687.097837147
 10
2390.3519265768
 20
686.7448688847
 10
2391.0107714277
 20
686.2634810304
 10
2391.3485428721
 20
685.7007951813
 10
2391.3321774876
 20
685.1118909487
 10
2390.9632772322
 20
684.554414382
 10
2390.277952633
 20
684.0829351718
 10
2389.3432880368
 20
683.7436049882
 10
2388.2507749265
 20
683.5696398337
 10
2387.1073560973
 20
683.5780686298
 10
2386.0249573509
 20
683.7680663072
 10
2385.109531418
 20
684.1210345695
 10
2384.4506865672
 20
684.6024224238
 10
2384.1129151228
 20
685.1651082729
 10
2384.1292805072
 20
685.7540125055
 10
2384.4981807627
 20
686.3114890722
 10
2385.1835053618
 20
686.7829682824
 10
2386.118169958
 20
687.122298466
 10
2387.2106830683
 20
687.2962636205
 10
2388.3541018975
 20
687.2878348244
 10
2389.436500644
 20
687.097837147
  0
LINE
  5
34E
330
1F
100
AcDbEntity
  8
0
  6
Continuous
 62
     7
370
    15
100
AcDbLine
 10
2490.8336804588
 20
781.2339330053
 30
0.0
 11
2490.8336804588
 21
782.9482676067
 31
0.0
  0
LINE
  5
34F
330
1F
100
AcDbEntity
  8
0
  6
Continuous
 62
     7
370
    15
100
AcDbLine
 10
2494.8005912647
 20
778.8128254797
 30
0.0
 11
2494.8005912647
 21
780.1558116489
 31
0.0
  0
LWPOLYLINE
  5
350
330
1F
100
AcDbEntity
  8
0
  6
Continuous
 62
     7
370
    15
100
AcDbPolyline
 90
       21
 70
   128
 43
0.0
 10
2402.6315558828
 20
685.078216797
 10
2403.7139546293
 20
684.8882191196
 10
2404.8573734585
 20
684.8797903235
 10
2405.9498865688
 20
685.053755478
 10
2406.8845511649
 20
685.3930856616
 10
2407.5698757641
 20
685.8645648718
 10
2407.9387760196
 20
686.4220414385
 10
2407.955141404
 20
687.0109456711
 10
2407.6173699596
 20
687.5736315202
 10
2406.9585251088
 20
688.0550193745
 10
2406.0430991759
 20
688.4079876368
 10
2404.9607004295
 20
688.5979853142
 10
2403.8172816002
 20
688.6064141103
 10
2402.72476849
 20
688.4324489558
 10
2401.7901038938
 20
688.0931187722
 10
2401.1047792946
 20
687.621639562
 10
2400.7358790392
 20
687.0641629953
 10
2400.7195136547
 20
686.4752587627
 10
2401.0572850991
 20
685.9125729136
 10
2401.7161299499
 20
685.4311850593
 10
2402.6315558828
 20
685.078216797
  0
LWPOLYLINE
  5
351
330
1F
100
AcDbEntity
  8
0
  6
Continuous
 62
     7
370
    15
100
AcDbPolyline
 90
       20
 70
   128
 43
0.0
 10
2389.3641628587
 20
687.0272332509
 10
2390.2807542379
 20
686.667687306
 10
2390.9210108146
 20
686.1743386022
 10
2391.2155508541
 20
685.6006491267
 10
2391.1324563728
 20
685.0087870358
 10
2390.6807319472
 20
684.4628897708
 10
2389.9093289279
 20
684.0221137709
 10
2388.9018408018
 20
683.7342239549
 10
2387.7674445399
 20
683.6304176515
 10
2386.6290695793
 20
683.7219438844
 10
2385.6100765107
 20
683.9988843661
 10
2384.8208890443
 20
684.4312282982
 10
2384.3470278877
 20
684.9721245071
 10
2384.2398432498
 20
685.5629584958
 10
2384.5109502494
 20
686.1397042339
 10
2385.1309702363
 20
686.6398623714
 10
2386.0327144244
 20
687.0092330135
 10
2387.1184648389
 20
687.2077891197
 10
2388.2705635753
 20
687.2140140549
 10
2389.3641628587
 20
687.0272332509
  0
LINE
  5
352
330
1F
100
AcDbEntity
  8
0
  6
Continuous
 62
     7
370
    15
100
AcDbLine
 10
2709.4398778353
 20
616.6617446807
 30
0.0
 11
2712.0931322003
 21
615.9406469966
 31
0.0
  0
LINE
  5
353
330
1F
100
AcDbEntity
  8
0
  6
Continuous
 62
     7
370
    15
100
AcDbLine
 10
2709.3195227401
 20
616.5486612924
 30
0.0
 11
2709.4398778353
 21
616.6617446807
 31
0.0
  0
LWPOLYLINE
  5
354
330
1F
100
AcDbEntity
  8
0
  6
Continuous
 62
     7
370
    15
100
AcDbPolyline
 90
       20
 70
   128
 43
0.0
 10
2402.7038936681
 20
685.1488206931
 10
2403.7974929515
 20
684.9620398891
 10
2404.9495916879
 20
684.9682648243
 10
2406.0353421024
 20
685.1668209305
 10
2406.9370862905
 20
685.5361915726
 10
2407.5571062774
 20
686.0363497101
 10
2407.828213277
 20
686.6130954482
 10
2407.7210286391
 20
687.2039294369
 10
2407.2471674825
 20
687.7448256458
 10
2406.4579800161
 20
688.1771695779
 10
2405.4389869475
 20
688.4541100596
 10
2404.3006119869
 20
688.5456362925
 10
2403.166215725
 20
688.4418299891
 10
2402.1587275989
 20
688.1539401731
 10
2401.3873245796
 20
687.7131641732
 10
2400.935600154
 20
687.1672669082
 10
2400.8525056727
 20
686.5754048173
 10
2401.1470457122
 20
686.0017153418
 10
2401.7873022889
 20
685.508366638
 10
2402.7038936681
 20
685.1488206931
  0
LWPOLYLINE
  5
355
330
1F
100
AcDbEntity
  8
0
  6
Continuous
 62
     7
370
    15
100
AcDbPolyline
 90
       21
 70
   128
 43
0.0
 10
2362.9039569936
 20
694.3088139875
 10
2363.8193829265
 20
693.9558457252
 10
2364.4782277774
 20
693.474457871
 10
2364.8159992218
 20
692.9117720218
 10
2364.7996338373
 20
692.3228677892
 10
2364.4307335818
 20
691.7653912225
 10
2363.7454089827
 20
691.2939120123
 10
2362.8107443865
 20
690.9545818287
 10
2361.7182312762
 20
690.7806166742
 10
2360.574812447
 20
690.7890454703
 10
2359.4924137006
 20
690.9790431477
 10
2358.5769877677
 20
691.33201141
 10
2357.9181429168
 20
691.8133992643
 10
2357.5803714725
 20
692.3760851134
 10
2357.5967368569
 20
692.964989346
 10
2357.9656371124
 20
693.5224659127
 10
2358.6509617115
 20
693.9939451229
 10
2359.5856263077
 20
694.3332753065
 10
2360.678139418
 20
694.507240461
 10
2361.8215582472
 20
694.4988116649
 10
2362.9039569936
 20
694.3088139875
  0
LINE
  5
356
330
1F
100
AcDbEntity
  8
0
  6
Continuous
 62
     7
370
    15
100
AcDbLine
 10
2462.974509626
 20
788.8054586879
 30
0.0
 11
2462.974509626
 21
790.5197932893
 31
0.0
  0
LINE
  5
357
330
1F
100
AcDbEntity
  8
0
  6
Continuous
 62
     7
370
    15
100
AcDbLine
 10
2466.9414204319
 20
786.3843511623
 30
0.0
 11
2466.9414204319
 21
787.7273373315
 31
0.0
  0
LWPOLYLINE
  5
358
330
1F
100
AcDbEntity
  8
0
  6
Continuous
 62
     7
370
    15
100
AcDbPolyline
 90
       21
 70
   128
 43
0.0
 10
2376.0990122325
 20
692.2891936375
 10
2377.181410979
 20
692.0991959601
 10
2378.3248298082
 20
692.090767164
 10
2379.4173429185
 20
692.2647323185
 10
2380.3520075146
 20
692.6040625022
 10
2381.0373321138
 20
693.0755417123
 10
2381.4062323692
 20
693.633018279
 10
2381.4225977537
 20
694.2219225116
 10
2381.0848263093
 20
694.7846083608
 10
2380.4259814585
 20
695.2659962151
 10
2379.5105555256
 20
695.6189644773
 10
2378.4281567791
 20
695.8089621547
 10
2377.2847379499
 20
695.8173909508
 10
2376.1922248396
 20
695.6434257963
 10
2375.2575602435
 20
695.3040956127
 10
2374.5722356443
 20
694.8326164025
 10
2374.2033353889
 20
694.2751398358
 10
2374.1869700044
 20
693.6862356032
 10
2374.5247414488
 20
693.1235497541
 10
2375.1835862996
 20
692.6421618998
 10
2376.0990122325
 20
692.2891936375
  0
LWPOLYLINE
  5
359
330
1F
100
AcDbEntity
  8
0
  6
Continuous
 62
     7
370
    15
100
AcDbPolyline
 90
       20
 70
   128
 43
0.0
 10
2362.8316192084
 20
694.2382100914
 10
2363.7482105876
 20
693.8786641465
 10
2364.3884671643
 20
693.3853154427
 10
2364.6830072038
 20
692.8116259672
 10
2364.5999127225
 20
692.2197638763
 10
2364.1481882969
 20
691.6738666114
 10
2363.3767852776
 20
691.2330906114
 10
2362.3692971514
 20
690.9452007954
 10
2361.2349008896
 20
690.8413944921
 10
2360.096525929
 20
690.932920725
 10
2359.0775328604
 20
691.2098612066
 10
2358.288345394
 20
691.6422051387
 10
2357.8144842374
 20
692.1831013476
 10
2357.7072995995
 20
692.7739353363
 10
2357.9784065991
 20
693.3506810744
 10
2358.598426586
 20
693.8508392119
 10
2359.5001707741
 20
694.220209854
 10
2360.5859211886
 20
694.4187659602
 10
2361.7380199249
 20
694.4249908954
 10
2362.8316192084
 20
694.2382100914
  0
LINE
  5
35A
330
1F
100
AcDbEntity
  8
0
  6
Continuous
 62
     7
370
    15
100
AcDbLine
 10
2726.7076072257
 20
633.5155779324
 30
0.0
 11
2729.3608615907
 21
632.7944802484
 31
0.0
  0
LINE
  5
35B
330
1F
100
AcDbEntity
  8
0
  6
Continuous
 62
     7
370
    15
100
AcDbLine
 10
2709.4398778353
 20
616.6617446807
 30
0.0
 11
2726.7076072257
 21
633.5155779324
 31
0.0
  0
LWPOLYLINE
  5
35C
330
1F
100
AcDbEntity
  8
0
  6
Continuous
 62
     7
370
    15
100
AcDbPolyline
 90
       20
 70
   128
 43
0.0
 10
2376.1713500178
 20
692.3597975336
 10
2377.2649493012
 20
692.1730167296
 10
2378.4170480375
 20
692.1792416649
 10
2379.502798452
 20
692.377797771
 10
2380.4045426401
 20
692.7471684131
 10
2381.0245626271
 20
693.2473265506
 10
2381.2956696266
 20
693.8240722887
 10
2381.1884849888
 20
694.4149062774
 10
2380.7146238321
 20
694.9558024863
 10
2379.9254363658
 20
695.3881464184
 10
2378.9064432971
 20
695.6650869001
 10
2377.7680683366
 20
695.756613133
 10
2376.6336720747
 20
695.6528068296
 10
2375.6261839485
 20
695.3649170136
 10
2374.8547809293
 20
694.9241410137
 10
2374.4030565037
 20
694.3782437487
 10
2374.3199620224
 20
693.7863816579
 10
2374.6145020619
 20
693.2126921823
 10
2375.2547586386
 20
692.7193434785
 10
2376.1713500178
 20
692.3597975336
  0
LWPOLYLINE
  5
35D
330
1F
100
AcDbEntity
  8
0
  6
Continuous
 62
     7
370
    15
100
AcDbPolyline
 90
       21
 70
   128
 43
0.0
 10
2336.3714133433
 20
701.519790828
 10
2337.2868392762
 20
701.1668225658
 10
2337.9456841271
 20
700.6854347115
 10
2338.2834555714
 20
700.1227488623
 10
2338.267090187
 20
699.5338446297
 10
2337.8981899315
 20
698.9763680631
 10
2337.2128653324
 20
698.5048888529
 10
2336.2782007362
 20
698.1655586692
 10
2335.1856876259
 20
697.9915935147
 10
2334.0422687967
 20
698.0000223109
 10
2332.9598700502
 20
698.1900199883
 10
2332.0444441174
 20
698.5429882505
 10
2331.3855992665
 20
699.0243761048
 10
2331.0478278221
 20
699.5870619539
 10
2331.0641932066
 20
700.1759661865
 10
2331.433093462
 20
700.7334427532
 10
2332.1184180612
 20
701.2049219634
 10
2333.0530826574
 20
701.544252147
 10
2334.1455957677
 20
701.7182173015
 10
2335.2890145969
 20
701.7097885054
 10
2336.3714133433
 20
701.519790828
  0
LWPOLYLINE
  5
35E
330
1F
100
AcDbEntity
  8
0
  6
Continuous
 62
     7
370
    15
100
AcDbPolyline
 90
       21
 70
   128
 43
0.0
 10
2349.5664685822
 20
699.5001704781
 10
2350.6488673286
 20
699.3101728007
 10
2351.7922861579
 20
699.3017440046
 10
2352.8847992681
 20
699.475709159
 10
2353.8194638643
 20
699.8150393427
 10
2354.5047884635
 20
700.2865185529
 10
2354.8736887189
 20
700.8439951195
 10
2354.8900541034
 20
701.4328993521
 10
2354.552282659
 20
701.9955852013
 10
2353.8934378081
 20
702.4769730556
 10
2352.9780118753
 20
702.8299413178
 10
2351.8956131288
 20
703.0199389952
 10
2350.7521942996
 20
703.0283677913
 10
2349.6596811893
 20
702.8544026368
 10
2348.7250165931
 20
702.5150724532
 10
2348.039691994
 20
702.043593243
 10
2347.6707917385
 20
701.4861166763
 10
2347.6544263541
 20
700.8972124437
 10
2347.9921977985
 20
700.3345265946
 10
2348.6510426493
 20
699.8531387403
 10
2349.5664685822
 20
699.5001704781
  0
LWPOLYLINE
  5
35F
330
1F
100
AcDbEntity
  8
0
  6
Continuous
 62
     7
370
    15
100
AcDbPolyline
 90
       20
 70
   128
 43
0.0
 10
2336.299075558
 20
701.4491869319
 10
2337.2156669373
 20
701.089640987
 10
2337.855923514
 20
700.5962922832
 10
2338.1504635534
 20
700.0226028077
 10
2338.0673690722
 20
699.4307407168
 10
2337.6156446465
 20
698.8848434519
 10
2336.8442416273
 20
698.4440674519
 10
2335.8367535011
 20
698.156177636
 10
2334.7023572393
 20
698.0523713326
 10
2333.5639822787
 20
698.1438975655
 10
2332.5449892101
 20
698.4208380471
 10
2331.7558017437
 20
698.8531819792
 10
2331.2819405871
 20
699.3940781882
 10
2331.1747559492
 20
699.9849121769
 10
2331.4458629488
 20
700.5616579149
 10
2332.0658829357
 20
701.0618160524
 10
2332.9676271238
 20
701.4311866945
 10
2334.0533775383
 20
701.6297428007
 10
2335.2054762746
 20
701.6359677359
 10
2336.299075558
 20
701.4491869319
  0
LINE
  5
360
330
1F
100
AcDbEntity
  8
0
  6
Continuous
 62
     7
370
    15
100
AcDbLine
 10
2435.1153387932
 20
796.3769843704
 30
0.0
 11
2435.1153387932
 21
798.0913189718
 31
0.0
  0
LINE
  5
361
330
1F
100
AcDbEntity
  8
0
  6
Continuous
 62
     7
370
    15
100
AcDbLine
 10
2439.0822495991
 20
793.9558768448
 30
0.0
 11
2439.0822495991
 21
795.298863014
 31
0.0
  0
LWPOLYLINE
  5
362
330
1F
100
AcDbEntity
  8
0
  6
Continuous
 62
     7
370
    15
100
AcDbPolyline
 90
       20
 70
   128
 43
0.0
 10
2349.6388063675
 20
699.5707743741
 10
2350.7324056509
 20
699.3839935701
 10
2351.8845043872
 20
699.3902185054
 10
2352.9702548017
 20
699.5887746115
 10
2353.8719989898
 20
699.9581452536
 10
2354.4920189768
 20
700.4583033912
 10
2354.7631259763
 20
701.0350491292
 10
2354.6559413384
 20
701.6258831179
 10
2354.1820801818
 20
702.1667793268
 10
2353.3928927154
 20
702.5991232589
 10
2352.3738996468
 20
702.8760637406
 10
2351.2355246862
 20
702.9675899735
 10
2350.1011284244
 20
702.8637836701
 10
2349.0936402982
 20
702.5758938541
 10
2348.322237279
 20
702.1351178542
 10
2347.8705128533
 20
701.5892205892
 10
2347.7874183721
 20
700.9973584984
 10
2348.0819584116
 20
700.4236690229
 10
2348.7222149882
 20
699.9303203191
 10
2349.6388063675
 20
699.5707743741
  0
LWPOLYLINE
  5
363
330
1F
100
AcDbEntity
  8
0
  6
Continuous
 62
     7
370
    15
100
AcDbPolyline
 90
       21
 70
   128
 43
0.0
 10
2309.838869693
 20
708.7307676685
 10
2310.7542956259
 20
708.3777994063
 10
2311.4131404767
 20
707.896411552
 10
2311.7509119211
 20
707.3337257028
 10
2311.7345465366
 20
706.7448214702
 10
2311.3656462812
 20
706.1873449036
 10
2310.680321682
 20
705.7158656934
 10
2309.7456570859
 20
705.3765355097
 10
2308.6531439756
 20
705.2025703553
 10
2307.5097251464
 20
705.2109991514
 10
2306.4273263999
 20
705.4009968288
 10
2305.511900467
 20
705.753965091
 10
2304.8530556162
 20
706.2353529453
 10
2304.5152841718
 20
706.7980387944
 10
2304.5316495563
 20
707.3869430271
 10
2304.9005498117
 20
707.9444195937
 10
2305.5858744109
 20
708.4158988039
 10
2306.520539007
 20
708.7552289876
 10
2307.6130521173
 20
708.929194142
 10
2308.7564709465
 20
708.9207653459
 10
2309.838869693
 20
708.7307676685
  0
ARC
  5
364
330
1F
100
AcDbEntity
  8
0
  6
Continuous
 62
     7
370
    15
100
AcDbCircle
 10
2717.4073933363
 20
641.596747612
 30
0.0
 40
12.32068511809086
100
AcDbArc
 50
319.0118729463
 51
11.4888071064
  0
LWPOLYLINE
  5
365
330
1F
100
AcDbEntity
  8
0
  6
Continuous
 62
     7
370
    15
100
AcDbPolyline
 90
       21
 70
   128
 43
0.0
 10
2323.0339249319
 20
706.7111473186
 10
2324.1163236783
 20
706.5211496412
 10
2325.2597425075
 20
706.5127208451
 10
2326.3522556178
 20
706.6866859995
 10
2327.286920214
 20
707.0260161832
 10
2327.9722448131
 20
707.4974953934
 10
2328.3411450686
 20
708.05497196
 10
2328.3575104531
 20
708.6438761927
 10
2328.0197390087
 20
709.2065620418
 10
2327.3608941578
 20
709.6879498961
 10
2326.4454682249
 20
710.0409181583
 10
2325.3630694785
 20
710.2309158357
 10
2324.2196506493
 20
710.2393446318
 10
2323.127137539
 20
710.0653794774
 10
2322.1924729428
 20
709.7260492937
 10
2321.5071483437
 20
709.2545700835
 10
2321.1382480882
 20
708.6970935169
 10
2321.1218827038
 20
708.1081892843
 10
2321.4596541481
 20
707.5455034351
 10
2322.118498999
 20
707.0641155808
 10
2323.0339249319
 20
706.7111473186
  0
LWPOLYLINE
  5
366
330
1F
100
AcDbEntity
  8
0
  6
Continuous
 62
     7
370
    15
100
AcDbPolyline
 90
       20
 70
   128
 43
0.0
 10
2309.7665319077
 20
708.6601637725
 10
2310.6831232869
 20
708.3006178275
 10
2311.3233798636
 20
707.8072691237
 10
2311.6179199031
 20
707.2335796482
 10
2311.5348254218
 20
706.6417175574
 10
2311.0831009962
 20
706.0958202924
 10
2310.311697977
 20
705.6550442925
 10
2309.3042098508
 20
705.3671544765
 10
2308.1698135889
 20
705.2633481731
 10
2307.0314386284
 20
705.354874406
 10
2306.0124455597
 20
705.6318148877
 10
2305.2232580934
 20
706.0641588197
 10
2304.7493969367
 20
706.6050550287
 10
2304.6422122989
 20
707.1958890174
 10
2304.9133192984
 20
707.7726347554
 10
2305.5333392854
 20
708.272792893
 10
2306.4350834735
 20
708.642163535
 10
2307.520833888
 20
708.8407196412
 10
2308.6729326243
 20
708.8469445765
 10
2309.7665319077
 20
708.6601637725
  0
LINE
  5
367
330
1F
100
AcDbEntity
  8
0
  6
Continuous
 62
     7
370
    15
100
AcDbLine
 10
2407.2561679603
 20
803.948510053
 30
0.0
 11
2407.2561679603
 21
805.6628446544
 31
0.0
  0
LINE
  5
368
330
1F
100
AcDbEntity
  8
0
  6
Continuous
 62
     7
370
    15
100
AcDbLine
 10
2411.2230787662
 20
801.5274025274
 30
0.0
 11
2411.2230787662
 21
802.8703886965
 31
0.0
  0
LWPOLYLINE
  5
369
330
1F
100
AcDbEntity
  8
0
  6
Continuous
 62
     7
370
    15
100
AcDbPolyline
 90
       20
 70
   128
 43
0.0
 10
2323.1062627171
 20
706.7817512146
 10
2324.1998620006
 20
706.5949704106
 10
2325.3519607369
 20
706.6011953459
 10
2326.4377111514
 20
706.7997514521
 10
2327.3394553395
 20
707.1691220941
 10
2327.9594753264
 20
707.6692802317
 10
2328.230582326
 20
708.2460259697
 10
2328.1233976881
 20
708.8368599584
 10
2327.6495365315
 20
709.3777561674
 10
2326.8603490651
 20
709.8101000994
 10
2325.8413559965
 20
710.0870405811
 10
2324.7029810359
 20
710.178566814
 10
2323.5685847741
 20
710.0747605106
 10
2322.5610966479
 20
709.7868706946
 10
2321.7896936286
 20
709.3460946947
 10
2321.337969203
 20
708.8001974297
 10
2321.2548747217
 20
708.2083353389
 10
2321.5494147612
 20
707.6346458634
 10
2322.1896713379
 20
707.1412971596
 10
2323.1062627171
 20
706.7817512146
  0
LWPOLYLINE
  5
36A
330
1F
100
AcDbEntity
  8
0
  6
Continuous
 62
     7
370
    15
100
AcDbPolyline
 90
       21
 70
   128
 43
0.0
 10
2283.3063260427
 20
715.941744509
 10
2284.2217519756
 20
715.5887762468
 10
2284.8805968264
 20
715.1073883925
 10
2285.2183682708
 20
714.5447025434
 10
2285.2020028863
 20
713.9557983108
 10
2284.8331026309
 20
713.3983217441
 10
2284.1477780317
 20
712.9268425339
 10
2283.2131134356
 20
712.5875123503
 10
2282.1206003253
 20
712.4135471958
 10
2280.977181496
 20
712.4219759919
 10
2279.8947827496
 20
712.6119736693
 10
2278.9793568167
 20
712.9649419315
 10
2278.3205119659
 20
713.4463297858
 10
2277.9827405215
 20
714.009015635
 10
2277.999105906
 20
714.5979198676
 10
2278.3680061614
 20
715.1553964342
 10
2279.0533307606
 20
715.6268756444
 10
2279.9879953567
 20
715.9662058281
 10
2281.080508467
 20
716.1401709825
 10
2282.2239272962
 20
716.1317421864
 10
2283.3063260427
 20
715.941744509
  0
LWPOLYLINE
  5
36B
330
1F
100
AcDbEntity
  8
0
  6
Continuous
 62
     7
370
    15
100
AcDbPolyline
 90
       21
 70
   128
 43
0.0
 10
2296.5013812815
 20
713.9221241591
 10
2297.583780028
 20
713.7321264817
 10
2298.7271988572
 20
713.7236976856
 10
2299.8197119675
 20
713.8976628401
 10
2300.7543765637
 20
714.2369930237
 10
2301.4397011628
 20
714.7084722339
 10
2301.8086014183
 20
715.2659488006
 10
2301.8249668027
 20
715.8548530332
 10
2301.4871953584
 20
716.4175388823
 10
2300.8283505075
 20
716.8989267366
 10
2299.9129245746
 20
717.2518949988
 10
2298.8305258282
 20
717.4418926762
 10
2297.687106999
 20
717.4503214724
 10
2296.5945938887
 20
717.2763563179
 10
2295.6599292925
 20
716.9370261342
 10
2294.9746046933
 20
716.465546924
 10
2294.6057044379
 20
715.9080703574
 10
2294.5893390534
 20
715.3191661248
 10
2294.9271104978
 20
714.7564802756
 10
2295.5859553487
 20
714.2750924213
 10
2296.5013812815
 20
713.9221241591
  0
LWPOLYLINE
  5
36C
330
1F
100
AcDbEntity
  8
0
  6
Continuous
 62
     7
370
    15
100
AcDbPolyline
 90
       20
 70
   128
 43
0.0
 10
2283.2339882574
 20
715.871140613
 10
2284.1505796366
 20
715.511594668
 10
2284.7908362133
 20
715.0182459642
 10
2285.0853762528
 20
714.4445564887
 10
2285.0022817715
 20
713.8526943979
 10
2284.5505573459
 20
713.3067971329
 10
2283.7791543266
 20
712.866021133
 10
2282.7716662005
 20
712.578131317
 10
2281.6372699386
 20
712.4743250136
 10
2280.498894978
 20
712.5658512465
 10
2279.4799019094
 20
712.8427917282
 10
2278.690714443
 20
713.2751356603
 10
2278.2168532864
 20
713.8160318692
 10
2278.1096686485
 20
714.4068658579
 10
2278.3807756481
 20
714.9836115959
 10
2279.000795635
 20
715.4837697335
 10
2279.9025398231
 20
715.8531403756
 10
2280.9882902376
 20
716.0516964817
 10
2282.140388974
 20
716.057921417
 10
2283.2339882574
 20
715.871140613
  0
LINE
  5
36D
330
1F
100
AcDbEntity
  8
0
  6
Continuous
 62
     7
370
    15
100
AcDbLine
 10
2379.3969971275
 20
811.5200357355
 30
0.0
 11
2379.3969971275
 21
813.2343703369
 31
0.0
  0
LINE
  5
36E
330
1F
100
AcDbEntity
  8
0
  6
Continuous
 62
     7
370
    15
100
AcDbLine
 10
2383.3639079334
 20
809.0989282099
 30
0.0
 11
2383.3639079334
 21
810.4419143791
 31
0.0
  0
LWPOLYLINE
  5
36F
330
1F
100
AcDbEntity
  8
0
  6
Continuous
 62
     7
370
    15
100
AcDbPolyline
 90
       20
 70
   128
 43
0.0
 10
2296.5737190668
 20
713.9927280552
 10
2297.6673183502
 20
713.8059472512
 10
2298.8194170866
 20
713.8121721864
 10
2299.9051675011
 20
714.0107282926
 10
2300.8069116892
 20
714.3800989347
 10
2301.4269316761
 20
714.8802570722
 10
2301.6980386757
 20
715.4570028102
 10
2301.5908540378
 20
716.0478367989
 10
2301.1169928812
 20
716.5887330079
 10
2300.3278054148
 20
717.02107694
 10
2299.3088123462
 20
717.2980174216
 10
2298.1704373856
 20
717.3895436545
 10
2297.0360411237
 20
717.2857373511
 10
2296.0285529976
 20
716.9978475352
 10
2295.2571499783
 20
716.5570715352
 10
2294.8054255527
 20
716.0111742703
 10
2294.7223310714
 20
715.4193121794
 10
2295.0168711109
 20
714.8456227039
 10
2295.6571276876
 20
714.3522740001
 10
2296.5737190668
 20
713.9927280552
  0
LINE
  5
370
330
1F
100
AcDbEntity
  8
0
  6
Continuous
 62
     7
370
    15
100
AcDbLine
 10
2602.2703637902
 20
750.9478302752
 30
0.0
 11
2627.429031882
 21
744.1102433729
 31
0.0
  0
LINE
  5
371
330
1F
100
AcDbEntity
  8
0
  6
Continuous
 62
     7
370
    15
100
AcDbLine
 10
2630.129534623
 20
743.3763045926
 30
0.0
 11
2655.2882027148
 21
736.5387176903
 31
0.0
  0
LINE
  5
372
330
1F
100
AcDbEntity
  8
0
  6
Continuous
 62
     7
370
    15
100
AcDbLine
 10
2657.9887054559
 20
735.8047789101
 30
0.0
 11
2683.1473735477
 21
728.9671920078
 31
0.0
  0
LINE
  5
373
330
1F
100
AcDbEntity
  8
0
  6
Continuous
 62
     7
370
    15
100
AcDbLine
 10
2685.8478762887
 20
728.2332532275
 30
0.0
 11
2711.0065443805
 21
721.3956663252
 31
0.0
  0
LINE
  5
374
330
1F
100
AcDbEntity
  8
0
  6
Continuous
 62
     7
370
    15
100
AcDbLine
 10
2713.7070471215
 20
720.661727545
 30
0.0
 11
2738.8657152134
 21
713.8241406427
 31
0.0
  0
LINE
  5
375
330
1F
100
AcDbEntity
  8
0
  6
Continuous
 62
     7
370
    15
100
AcDbLine
 10
2741.5662179544
 20
713.0902018624
 30
0.0
 11
2751.4686734473
 21
710.3989266434
 31
0.0
  0
LWPOLYLINE
  5
376
330
1F
100
AcDbEntity
  8
0
  6
Continuous
 62
     7
370
    15
100
AcDbPolyline
 90
       21
 70
   128
 43
0.0
 10
2256.7737823924
 20
723.1527213496
 10
2257.6892083252
 20
722.7997530873
 10
2258.3480531761
 20
722.318365233
 10
2258.6858246205
 20
721.7556793839
 10
2258.669459236
 20
721.1667751513
 10
2258.3005589805
 20
720.6092985846
 10
2257.6152343814
 20
720.1378193744
 10
2256.6805697852
 20
719.7984891908
 10
2255.5880566749
 20
719.6245240363
 10
2254.4446378457
 20
719.6329528324
 10
2253.3622390993
 20
719.8229505098
 10
2252.4468131664
 20
720.175918772
 10
2251.7879683155
 20
720.6573066263
 10
2251.4501968712
 20
721.2199924755
 10
2251.4665622556
 20
721.8088967081
 10
2251.8354625111
 20
722.3663732748
 10
2252.5207871102
 20
722.8378524849
 10
2253.4554517064
 20
723.1771826686
 10
2254.5479648167
 20
723.3511478231
 10
2255.6913836459
 20
723.342719027
 10
2256.7737823924
 20
723.1527213496
  0
LWPOLYLINE
  5
377
330
1F
100
AcDbEntity
  8
0
  6
Continuous
 62
     7
370
    15
100
AcDbPolyline
 90
       21
 70
   128
 43
0.0
 10
2269.9688376312
 20
721.1331009996
 10
2271.0512363777
 20
720.9431033222
 10
2272.1946552069
 20
720.9346745261
 10
2273.2871683172
 20
721.1086396806
 10
2274.2218329133
 20
721.4479698642
 10
2274.9071575125
 20
721.9194490744
 10
2275.2760577679
 20
722.4769256411
 10
2275.2924231524
 20
723.0658298737
 10
2274.954651708
 20
723.6285157228
 10
2274.2958068572
 20
724.1099035771
 10
2273.3803809243
 20
724.4628718394
 10
2272.2979821778
 20
724.6528695168
 10
2271.1545633486
 20
724.6612983129
 10
2270.0620502383
 20
724.4873331584
 10
2269.1273856422
 20
724.1480029748
 10
2268.442061043
 20
723.6765237646
 10
2268.0731607876
 20
723.1190471979
 10
2268.0567954031
 20
722.5301429653
 10
2268.3945668475
 20
721.9674571161
 10
2269.0534116983
 20
721.4860692619
 10
2269.9688376312
 20
721.1331009996
  0
LWPOLYLINE
  5
378
330
1F
100
AcDbEntity
  8
0
  6
Continuous
 62
     7
370
    15
100
AcDbPolyline
 90
       20
 70
   128
 43
0.0
 10
2256.7014446071
 20
723.0821174535
 10
2257.6180359863
 20
722.7225715086
 10
2258.258292563
 20
722.2292228048
 10
2258.5528326025
 20
721.6555333292
 10
2258.4697381212
 20
721.0636712384
 10
2258.0180136956
 20
720.5177739734
 10
2257.2466106763
 20
720.0769979735
 10
2256.2391225501
 20
719.7891081575
 10
2255.1047262883
 20
719.6853018541
 10
2253.9663513277
 20
719.776828087
 10
2252.9473582591
 20
720.0537685687
 10
2252.1581707927
 20
720.4861125008
 10
2251.6843096361
 20
721.0270087097
 10
2251.5771249982
 20
721.6178426984
 10
2251.8482319978
 20
722.1945884365
 10
2252.4682519847
 20
722.694746574
 10
2253.3699961728
 20
723.0641172161
 10
2254.4557465873
 20
723.2626733222
 10
2255.6078453236
 20
723.2688982575
 10
2256.7014446071
 20
723.0821174535
  0
LWPOLYLINE
  5
379
330
1F
100
AcDbEntity
  8
0
  6
Continuous
 62
     7
370
    15
100
AcDbPolyline
 90
       20
 70
   128
 43
0.0
 10
2270.0411754165
 20
721.2037048957
 10
2271.1347746999
 20
721.0169240917
 10
2272.2868734363
 20
721.0231490269
 10
2273.3726238508
 20
721.2217051331
 10
2274.2743680389
 20
721.5910757752
 10
2274.8943880258
 20
722.0912339127
 10
2275.1654950253
 20
722.6679796508
 10
2275.0583103875
 20
723.2588136395
 10
2274.5844492308
 20
723.7997098484
 10
2273.7952617645
 20
724.2320537805
 10
2272.7762686959
 20
724.5089942621
 10
2271.6378937353
 20
724.600520495
 10
2270.5034974734
 20
724.4967141917
 10
2269.4960093472
 20
724.2088243757
 10
2268.724606328
 20
723.7680483757
 10
2268.2728819024
 20
723.2221511108
 10
2268.1897874211
 20
722.6302890199
 10
2268.4843274606
 20
722.0565995444
 10
2269.1245840373
 20
721.5632508406
 10
2270.0411754165
 20
721.2037048957
  0
LWPOLYLINE
  5
37A
330
1F
100
AcDbEntity
  8
0
  6
Continuous
 62
     7
370
    15
100
AcDbPolyline
 90
       21
 70
   128
 43
0.0
 10
2230.241238742
 20
730.3636981901
 10
2231.1566646749
 20
730.0107299278
 10
2231.8155095258
 20
729.5293420735
 10
2232.1532809701
 20
728.9666562244
 10
2232.1369155857
 20
728.3777519918
 10
2231.7680153302
 20
727.8202754251
 10
2231.0826907311
 20
727.3487962149
 10
2230.1480261349
 20
727.0094660313
 10
2229.0555130246
 20
726.8355008768
 10
2227.9120941954
 20
726.8439296729
 10
2226.8296954489
 20
727.0339273503
 10
2225.9142695161
 20
727.3868956126
 10
2225.2554246652
 20
727.8682834669
 10
2224.9176532208
 20
728.430969316
 10
2224.9340186053
 20
729.0198735486
 10
2225.3029188608
 20
729.5773501153
 10
2225.9882434599
 20
730.0488293255
 10
2226.9229080561
 20
730.3881595091
 10
2228.0154211664
 20
730.5621246636
 10
2229.1588399956
 20
730.5536958675
 10
2230.241238742
 20
730.3636981901
  0
LWPOLYLINE
  5
37B
330
1F
100
AcDbEntity
  8
0
  6
Continuous
 62
     7
370
    15
100
AcDbPolyline
 90
       21
 70
   128
 43
0.0
 10
2243.4362939809
 20
728.3440778401
 10
2244.5186927273
 20
728.1540801627
 10
2245.6621115566
 20
728.1456513666
 10
2246.7546246669
 20
728.3196165211
 10
2247.689289263
 20
728.6589467047
 10
2248.3746138622
 20
729.1304259149
 10
2248.7435141176
 20
729.6879024816
 10
2248.7598795021
 20
730.2768067142
 10
2248.4221080577
 20
730.8394925633
 10
2247.7632632069
 20
731.3208804176
 10
2246.847837274
 20
731.6738486799
 10
2245.7654385275
 20
731.8638463573
 10
2244.6220196983
 20
731.8722751534
 10
2243.529506588
 20
731.6983099989
 10
2242.5948419919
 20
731.3589798153
 10
2241.9095173927
 20
730.8875006051
 10
2241.5406171373
 20
730.3300240384
 10
2241.5242517528
 20
729.7411198058
 10
2241.8620231972
 20
729.1784339567
 10
2242.520868048
 20
728.6970461024
 10
2243.4362939809
 20
728.3440778401
  0
LWPOLYLINE
  5
37C
330
1F
100
AcDbEntity
  8
0
  6
Continuous
 62
     7
370
    15
100
AcDbPolyline
 90
       20
 70
   128
 43
0.0
 10
2230.1689009567
 20
730.293094294
 10
2231.085492336
 20
729.9335483491
 10
2231.7257489127
 20
729.4401996453
 10
2232.0202889521
 20
728.8665101698
 10
2231.9371944709
 20
728.2746480789
 10
2231.4854700452
 20
727.7287508139
 10
2230.714067026
 20
727.287974814
 10
2229.7065788998
 20
727.000084998
 10
2228.572182638
 20
726.8962786946
 10
2227.4338076774
 20
726.9878049275
 10
2226.4148146088
 20
727.2647454092
 10
2225.6256271424
 20
727.6970893413
 10
2225.1517659858
 20
728.2379855502
 10
2225.0445813479
 20
728.8288195389
 10
2225.3156883475
 20
729.405565277
 10
2225.9357083344
 20
729.9057234145
 10
2226.8374525225
 20
730.2750940566
 10
2227.923202937
 20
730.4736501628
 10
2229.0753016733
 20
730.479875098
 10
2230.1689009567
 20
730.293094294
  0
LWPOLYLINE
  5
37D
330
1F
100
AcDbEntity
  8
0
  6
Continuous
 62
     7
370
    15
100
AcDbPolyline
 90
       20
 70
   128
 43
0.0
 10
2243.5086317662
 20
728.4146817362
 10
2244.6022310496
 20
728.2279009322
 10
2245.7543297859
 20
728.2341258674
 10
2246.8400802004
 20
728.4326819736
 10
2247.7418243885
 20
728.8020526157
 10
2248.3618443755
 20
729.3022107532
 10
2248.632951375
 20
729.8789564913
 10
2248.5257667372
 20
730.46979048
 10
2248.0519055805
 20
731.0106866889
 10
2247.2627181142
 20
731.443030621
 10
2246.2437250455
 20
731.7199711027
 10
2245.105350085
 20
731.8114973356
 10
2243.9709538231
 20
731.7076910322
 10
2242.9634656969
 20
731.4198012162
 10
2242.1920626777
 20
730.9790252163
 10
2241.740338252
 20
730.4331279513
 10
2241.6572437708
 20
729.8412658604
 10
2241.9517838103
 20
729.2675763849
 10
2242.592040387
 20
728.7742276811
 10
2243.5086317662
 20
728.4146817362
  0
LWPOLYLINE
  5
37E
330
1F
100
AcDbEntity
  8
0
  6
Continuous
 62
     7
370
    15
100
AcDbPolyline
 90
       21
 70
   128
 43
0.0
 10
2203.7086950917
 20
737.5746750306
 10
2204.6241210246
 20
737.2217067683
 10
2205.2829658754
 20
736.7403189141
 10
2205.6207373198
 20
736.1776330649
 10
2205.6043719353
 20
735.5887288323
 10
2205.2354716799
 20
735.0312522656
 10
2204.5501470807
 20
734.5597730555
 10
2203.6154824846
 20
734.2204428718
 10
2202.5229693743
 20
734.0464777173
 10
2201.3795505451
 20
734.0549065134
 10
2200.2971517986
 20
734.2449041908
 10
2199.3817258657
 20
734.5978724531
 10
2198.7228810149
 20
735.0792603074
 10
2198.3851095705
 20
735.6419461565
 10
2198.401474955
 20
736.2308503891
 10
2198.7703752104
 20
736.7883269558
 10
2199.4556998096
 20
737.259806166
 10
2200.3903644057
 20
737.5991363496
 10
2201.482877516
 20
737.7731015041
 10
2202.6262963452
 20
737.764672708
 10
2203.7086950917
 20
737.5746750306
  0
LWPOLYLINE
  5
37F
330
1F
100
AcDbEntity
  8
0
  6
Continuous
 62
     7
370
    15
100
AcDbPolyline
 90
       21
 70
   128
 43
0.0
 10
2216.9037503306
 20
735.5550546807
 10
2217.986149077
 20
735.3650570033
 10
2219.1295679062
 20
735.3566282071
 10
2220.2220810165
 20
735.5305933616
 10
2221.1567456127
 20
735.8699235453
 10
2221.8420702118
 20
736.3414027555
 10
2222.2109704673
 20
736.8988793221
 10
2222.2273358518
 20
737.4877835547
 10
2221.8895644074
 20
738.0504694039
 10
2221.2307195565
 20
738.5318572582
 10
2220.3152936237
 20
738.8848255204
 10
2219.2328948772
 20
739.0748231978
 10
2218.089476048
 20
739.0832519939
 10
2216.9969629377
 20
738.9092868394
 10
2216.0622983415
 20
738.5699566558
 10
2215.3769737424
 20
738.0984774456
 10
2215.0080734869
 20
737.5410008789
 10
2214.9917081025
 20
736.9520966463
 10
2215.3294795468
 20
736.3894107972
 10
2215.9883243977
 20
735.9080229429
 10
2216.9037503306
 20
735.5550546807
  0
LWPOLYLINE
  5
380
330
1F
100
AcDbEntity
  8
0
  6
Continuous
 62
     7
370
    15
100
AcDbPolyline
 90
       20
 70
   128
 43
0.0
 10
2203.6363573064
 20
737.5040711345
 10
2204.5529486856
 20
737.1445251896
 10
2205.1932052623
 20
736.6511764858
 10
2205.4877453018
 20
736.0774870103
 10
2205.4046508206
 20
735.4856249194
 10
2204.9529263949
 20
734.9397276545
 10
2204.1815233757
 20
734.4989516545
 10
2203.1740352495
 20
734.2110618385
 10
2202.0396389876
 20
734.1072555352
 10
2200.9012640271
 20
734.1987817681
 10
2199.8822709584
 20
734.4757222497
 10
2199.0930834921
 20
734.9080661818
 10
2198.6192223354
 20
735.4489623908
 10
2198.5120376976
 20
736.0397963795
 10
2198.7831446971
 20
736.6165421175
 10
2199.4031646841
 20
737.116700255
 10
2200.3049088722
 20
737.4860708971
 10
2201.3906592867
 20
737.6846270033
 10
2202.542758023
 20
737.6908519385
 10
2203.6363573064
 20
737.5040711345
  0
LWPOLYLINE
  5
381
330
1F
100
AcDbEntity
  8
0
  6
Continuous
 62
     7
370
    15
100
AcDbPolyline
 90
       20
 70
   128
 43
0.0
 10
2216.9760881159
 20
735.6256585767
 10
2218.0696873993
 20
735.4388777727
 10
2219.2217861356
 20
735.445102708
 10
2220.3075365501
 20
735.6436588141
 10
2221.2092807382
 20
736.0130294562
 10
2221.8293007251
 20
736.5131875937
 10
2222.1004077247
 20
737.0899333318
 10
2221.9932230868
 20
737.6807673205
 10
2221.5193619302
 20
738.2216635294
 10
2220.7301744638
 20
738.6540074615
 10
2219.7111813952
 20
738.9309479432
 10
2218.5728064346
 20
739.0224741761
 10
2217.4384101728
 20
738.9186678727
 10
2216.4309220466
 20
738.6307780567
 10
2215.6595190274
 20
738.1900020568
 10
2215.2077946017
 20
737.6441047918
 10
2215.1247001205
 20
737.052242701
 10
2215.4192401599
 20
736.4785532254
 10
2216.0594967366
 20
735.9852045216
 10
2216.9760881159
 20
735.6256585767
  0
LWPOLYLINE
  5
382
330
1F
100
AcDbEntity
  8
0
  6
Continuous
 62
     7
370
    15
100
AcDbPolyline
 90
       21
 70
   128
 43
0.0
 10
2177.1761514414
 20
744.7856518711
 10
2178.0915773743
 20
744.4326836089
 10
2178.7504222251
 20
743.9512957546
 10
2179.0881936695
 20
743.3886099054
 10
2179.071828285
 20
742.7997056728
 10
2178.7029280296
 20
742.2422291062
 10
2178.0176034304
 20
741.770749896
 10
2177.0829388343
 20
741.4314197123
 10
2175.990425724
 20
741.2574545579
 10
2174.8470068948
 20
741.265883354
 10
2173.7646081483
 20
741.4558810314
 10
2172.8491822154
 20
741.8088492936
 10
2172.1903373646
 20
742.2902371479
 10
2171.8525659202
 20
742.852922997
 10
2171.8689313047
 20
743.4418272296
 10
2172.2378315601
 20
743.9993037963
 10
2172.9231561593
 20
744.4707830065
 10
2173.8578207554
 20
744.8101131901
 10
2174.9503338657
 20
744.9840783446
 10
2176.0937526949
 20
744.9756495485
 10
2177.1761514414
 20
744.7856518711
  0
LWPOLYLINE
  5
383
330
1F
100
AcDbEntity
  8
0
  6
Continuous
 62
     7
370
    15
100
AcDbPolyline
 90
       21
 70
   128
 43
0.0
 10
2190.3712066802
 20
742.7660315212
 10
2191.4536054267
 20
742.5760338438
 10
2192.5970242559
 20
742.5676050477
 10
2193.6895373662
 20
742.7415702021
 10
2194.6242019624
 20
743.0809003858
 10
2195.3095265615
 20
743.552379596
 10
2195.678426817
 20
744.1098561626
 10
2195.6947922014
 20
744.6987603952
 10
2195.3570207571
 20
745.2614462444
 10
2194.6981759062
 20
745.7428340987
 10
2193.7827499733
 20
746.0958023609
 10
2192.7003512269
 20
746.2858000383
 10
2191.5569323977
 20
746.2942288344
 10
2190.4644192874
 20
746.12026368
 10
2189.5297546912
 20
745.7809334963
 10
2188.8444300921
 20
745.3094542861
 10
2188.4755298366
 20
744.7519777195
 10
2188.4591644521
 20
744.1630734868
 10
2188.7969358965
 20
743.6003876377
 10
2189.4557807474
 20
743.1189997834
 10
2190.3712066802
 20
742.7660315212
  0
LWPOLYLINE
  5
384
330
1F
100
AcDbEntity
  8
0
  6
Continuous
 62
     7
370
    15
100
AcDbPolyline
 90
       20
 70
   128
 43
0.0
 10
2177.1038136561
 20
744.715047975
 10
2178.0204050353
 20
744.3555020301
 10
2178.660661612
 20
743.8621533263
 10
2178.9552016515
 20
743.2884638508
 10
2178.8721071702
 20
742.6966017599
 10
2178.4203827446
 20
742.150704495
 10
2177.6489797254
 20
741.709928495
 10
2176.6414915992
 20
741.4220386791
 10
2175.5070953373
 20
741.3182323757
 10
2174.3687203767
 20
741.4097586086
 10
2173.3497273081
 20
741.6866990902
 10
2172.5605398418
 20
742.1190430223
 10
2172.0866786851
 20
742.6599392313
 10
2171.9794940473
 20
743.25077322
 10
2172.2506010468
 20
743.827518958
 10
2172.8706210337
 20
744.3276770955
 10
2173.7723652218
 20
744.6970477376
 10
2174.8581156363
 20
744.8956038438
 10
2176.0102143727
 20
744.901828779
 10
2177.1038136561
 20
744.715047975
  0
LWPOLYLINE
  5
385
330
1F
100
AcDbEntity
  8
0
  6
Continuous
 62
     7
370
    15
100
AcDbPolyline
 90
       20
 70
   128
 43
0.0
 10
2190.4435444655
 20
742.8366354172
 10
2191.537143749
 20
742.6498546132
 10
2192.6892424853
 20
742.6560795485
 10
2193.7749928998
 20
742.8546356546
 10
2194.6767370879
 20
743.2240062967
 10
2195.2967570748
 20
743.7241644343
 10
2195.5678640744
 20
744.3009101723
 10
2195.4606794365
 20
744.891744161
 10
2194.9868182799
 20
745.4326403699
 10
2194.1976308135
 20
745.864984302
 10
2193.1786377449
 20
746.1419247837
 10
2192.0402627843
 20
746.2334510166
 10
2190.9058665225
 20
746.1296447132
 10
2189.8983783963
 20
745.8417548972
 10
2189.126975377
 20
745.4009788973
 10
2188.6752509514
 20
744.8550816323
 10
2188.5921564701
 20
744.2632195415
 10
2188.8866965096
 20
743.689530066
 10
2189.5269530863
 20
743.1961813622
 10
2190.4435444655
 20
742.8366354172
  0
LWPOLYLINE
  5
386
330
1F
100
AcDbEntity
  8
0
  6
Continuous
 62
     7
370
    15
100
AcDbPolyline
 90
       21
 70
   128
 43
0.0
 10
2150.6436077911
 20
751.9966287116
 10
2151.5590337239
 20
751.6436604494
 10
2152.2178785748
 20
751.1622725951
 10
2152.5556500192
 20
750.599586746
 10
2152.5392846347
 20
750.0106825133
 10
2152.1703843793
 20
749.4532059467
 10
2151.4850597801
 20
748.9817267365
 10
2150.5503951839
 20
748.6423965528
 10
2149.4578820736
 20
748.4684313984
 10
2148.3144632444
 20
748.4768601945
 10
2147.232064498
 20
748.6668578719
 10
2146.3166385651
 20
749.0198261341
 10
2145.6577937142
 20
749.5012139884
 10
2145.3200222699
 20
750.0638998375
 10
2145.3363876543
 20
750.6528040702
 10
2145.7052879098
 20
751.2102806368
 10
2146.3906125089
 20
751.681759847
 10
2147.3252771051
 20
752.0210900307
 10
2148.4177902154
 20
752.1950551851
 10
2149.5612090446
 20
752.186626389
 10
2150.6436077911
 20
751.9966287116
  0
LWPOLYLINE
  5
387
330
1F
100
AcDbEntity
  8
0
  6
Continuous
 62
     7
370
    15
100
AcDbPolyline
 90
       21
 70
   128
 43
0.0
 10
2163.8386630299
 20
749.9770083617
 10
2164.9210617764
 20
749.7870106843
 10
2166.0644806056
 20
749.7785818882
 10
2167.1569937159
 20
749.9525470427
 10
2168.091658312
 20
750.2918772263
 10
2168.7769829112
 20
750.7633564365
 10
2169.1458831666
 20
751.3208330032
 10
2169.1622485511
 20
751.9097372358
 10
2168.8244771067
 20
752.4724230849
 10
2168.1656322559
 20
752.9538109392
 10
2167.250206323
 20
753.3067792014
 10
2166.1678075766
 20
753.4967768788
 10
2165.0243887473
 20
753.5052056749
 10
2163.931875637
 20
753.3312405205
 10
2162.9972110409
 20
752.9919103368
 10
2162.3118864417
 20
752.5204311266
 10
2161.9429861863
 20
751.96295456
 10
2161.9266208018
 20
751.3740503274
 10
2162.2643922462
 20
750.8113644782
 10
2162.923237097
 20
750.3299766239
 10
2163.8386630299
 20
749.9770083617
  0
LWPOLYLINE
  5
388
330
1F
100
AcDbEntity
  8
0
  6
Continuous
 62
     7
370
    15
100
AcDbPolyline
 90
       20
 70
   128
 43
0.0
 10
2150.5712700058
 20
751.9260248156
 10
2151.487861385
 20
751.5664788706
 10
2152.1281179617
 20
751.0731301668
 10
2152.4226580012
 20
750.4994406913
 10
2152.3395635199
 20
749.9075786005
 10
2151.8878390943
 20
749.3616813355
 10
2151.116436075
 20
748.9209053356
 10
2150.1089479489
 20
748.6330155196
 10
2148.974551687
 20
748.5292092162
 10
2147.8361767264
 20
748.6207354491
 10
2146.8171836578
 20
748.8976759308
 10
2146.0279961914
 20
749.3300198628
 10
2145.5541350348
 20
749.8709160718
 10
2145.4469503969
 20
750.4617500605
 10
2145.7180573965
 20
751.0384957985
 10
2146.3380773834
 20
751.5386539361
 10
2147.2398215715
 20
751.9080245781
 10
2148.325571986
 20
752.1065806843
 10
2149.4776707224
 20
752.1128056196
 10
2150.5712700058
 20
751.9260248156
  0
LWPOLYLINE
  5
389
330
1F
100
AcDbEntity
  8
0
  6
Continuous
 62
     7
370
    15
100
AcDbPolyline
 90
       20
 70
   128
 43
0.0
 10
2163.9110008152
 20
750.0476122577
 10
2165.0046000986
 20
749.8608314537
 10
2166.156698835
 20
749.867056389
 10
2167.2424492495
 20
750.0656124952
 10
2168.1441934376
 20
750.4349831372
 10
2168.7642134245
 20
750.9351412748
 10
2169.0353204241
 20
751.5118870128
 10
2168.9281357862
 20
752.1027210015
 10
2168.4542746296
 20
752.6436172105
 10
2167.6650871632
 20
753.0759611425
 10
2166.6460940946
 20
753.3529016242
 10
2165.507719134
 20
753.4444278571
 10
2164.3733228721
 20
753.3406215537
 10
2163.365834746
 20
753.0527317377
 10
2162.5944317267
 20
752.6119557378
 10
2162.1427073011
 20
752.0660584729
 10
2162.0596128198
 20
751.474196382
 10
2162.3541528593
 20
750.9005069065
 10
2162.994409436
 20
750.4071582027
 10
2163.9110008152
 20
750.0476122577
  0
LINE
  5
38A
330
1F
100
AcDbEntity
  8
0
  6
Continuous
 62
     7
370
    15
100
AcDbLine
 10
2227.4981847294
 20
854.5172127489
 30
0.0
 11
2227.4981847294
 21
852.8028781475
 31
0.0
  0
LINE
  5
38B
330
1F
100
AcDbEntity
  8
0
  6
Continuous
 62
     7
370
    15
100
AcDbLine
 10
2231.4650955353
 20
851.724756791
 30
0.0
 11
2231.4650955353
 21
850.3817706219
 31
0.0
  0
LWPOLYLINE
  5
38C
330
1F
100
AcDbEntity
  8
0
  6
Continuous
 62
     7
370
    15
100
AcDbPolyline
 90
       21
 70
   128
 43
0.0
 10
2137.3061193796
 20
757.1879852022
 10
2138.3885181261
 20
756.9979875248
 10
2139.5319369553
 20
756.9895587287
 10
2140.6244500656
 20
757.1635238832
 10
2141.5591146617
 20
757.5028540668
 10
2142.2444392609
 20
757.974333277
 10
2142.6133395163
 20
758.5318098437
 10
2142.6297049008
 20
759.1207140763
 10
2142.2919334564
 20
759.6833999254
 10
2141.6330886056
 20
760.1647877797
 10
2140.7176626727
 20
760.5177560419
 10
2139.6352639262
 20
760.7077537193
 10
2138.491845097
 20
760.7161825155
 10
2137.3993319867
 20
760.542217361
 10
2136.4646673906
 20
760.2028871773
 10
2135.7793427914
 20
759.7314079671
 10
2135.410442536
 20
759.1739314005
 10
2135.3940771515
 20
758.5850271679
 10
2135.7318485959
 20
758.0223413187
 10
2136.3906934467
 20
757.5409534644
 10
2137.3061193796
 20
757.1879852022
  0
LINE
  5
38D
330
1F
100
AcDbEntity
  8
0
  6
Continuous
 62
     7
370
    15
100
AcDbLine
 10
2574.4111929573
 20
758.5193559577
 30
0.0
 11
2599.5698610492
 21
751.6817690554
 31
0.0
  0
LWPOLYLINE
  5
38E
330
1F
100
AcDbEntity
  8
0
  6
Continuous
 62
     7
370
    15
100
AcDbPolyline
 90
       20
 70
   128
 43
0.0
 10
2137.3784571649
 20
757.2585890983
 10
2138.4720564483
 20
757.0718082943
 10
2139.6241551846
 20
757.0780332295
 10
2140.7099055991
 20
757.2765893357
 10
2141.6116497872
 20
757.6459599778
 10
2142.2316697742
 20
758.1461181153
 10
2142.5027767737
 20
758.7228638533
 10
2142.3955921359
 20
759.313697842
 10
2141.9217309792
 20
759.854594051
 10
2141.1325435129
 20
760.2869379831
 10
2140.1135504442
 20
760.5638784647
 10
2138.9751754837
 20
760.6554046976
 10
2137.8407792218
 20
760.5515983942
 10
2136.8332910956
 20
760.2637085783
 10
2136.0618880764
 20
759.8229325783
 10
2135.6101636508
 20
759.2770353134
 10
2135.5270691695
 20
758.6851732225
 10
2135.821609209
 20
758.111483747
 10
2136.4618657857
 20
757.6181350432
 10
2137.3784571649
 20
757.2585890983
  0
LINE
  5
38F
330
1F
100
AcDbEntity
  8
0
  6
Continuous
 62
     7
370
    15
100
AcDbLine
 10
2120.3915929699
 20
689.9761846382
 30
0.0
 11
2126.458633026
 21
695.8978017266
 31
0.0
  0
LINE
  5
390
330
1F
100
AcDbEntity
  8
0
  6
Continuous
 62
     7
370
    15
100
AcDbLine
 10
2546.5520221245
 20
766.0908816403
 30
0.0
 11
2571.7106902163
 21
759.2532947379
 31
0.0
  0
LINE
  5
391
330
1F
100
AcDbEntity
  8
0
  6
Continuous
 62
     7
370
    15
100
AcDbLine
 10
2518.6928512917
 20
773.6624073228
 30
0.0
 11
2543.8515193835
 21
766.8248204205
 31
0.0
  0
LINE
  5
392
330
1F
100
AcDbEntity
  8
0
  6
Continuous
 62
     7
370
    15
100
AcDbLine
 10
2490.8336804588
 20
781.2339330053
 30
0.0
 11
2515.9923485507
 21
774.396346103
 31
0.0
  0
LINE
  5
393
330
1F
100
AcDbEntity
  8
0
  6
Continuous
 62
     7
370
    15
100
AcDbLine
 10
2462.974509626
 20
788.8054586879
 30
0.0
 11
2488.1331777178
 21
781.9678717856
 31
0.0
  0
LINE
  5
394
330
1F
100
AcDbEntity
  8
0
  6
Continuous
 62
     7
370
    15
100
AcDbLine
 10
2435.1153387932
 20
796.3769843704
 30
0.0
 11
2460.274006885
 21
789.5393974681
 31
0.0
  0
LINE
  5
395
330
1F
100
AcDbEntity
  8
0
  6
Continuous
 62
     7
370
    15
100
AcDbLine
 10
2407.2561679603
 20
803.948510053
 30
0.0
 11
2432.4148360521
 21
797.1109231507
 31
0.0
  0
LINE
  5
396
330
1F
100
AcDbEntity
  8
0
  6
Continuous
 62
     7
370
    15
100
AcDbLine
 10
2379.3969971275
 20
811.5200357355
 30
0.0
 11
2404.5556652193
 21
804.6824488332
 31
0.0
  0
LINE
  5
397
330
1F
100
AcDbEntity
  8
0
  6
Continuous
 62
     7
370
    15
100
AcDbLine
 10
2227.4981847294
 20
852.8028781475
 30
0.0
 11
2237.4006402223
 21
850.1116029285
 31
0.0
  0
LINE
  5
398
330
1F
100
AcDbEntity
  8
0
  6
Continuous
 62
     7
370
    15
100
AcDbLine
 10
2240.1011429633
 20
849.3776641482
 30
0.0
 11
2265.2598110551
 21
842.5400772459
 31
0.0
  0
LINE
  5
399
330
1F
100
AcDbEntity
  8
0
  6
Continuous
 62
     7
370
    15
100
AcDbLine
 10
2267.9603137961
 20
841.8061384657
 30
0.0
 11
2293.1189818879
 21
834.9685515634
 31
0.0
  0
LINE
  5
39A
330
1F
100
AcDbEntity
  8
0
  6
Continuous
 62
     7
370
    15
100
AcDbLine
 10
2295.819484629
 20
834.2346127831
 30
0.0
 11
2320.9781527208
 21
827.3970258808
 31
0.0
  0
LINE
  5
39B
330
1F
100
AcDbEntity
  8
0
  6
Continuous
 62
     7
370
    15
100
AcDbLine
 10
2323.6786554618
 20
826.6630871006
 30
0.0
 11
2348.8373235536
 21
819.8255001983
 31
0.0
  0
LINE
  5
39C
330
1F
100
AcDbEntity
  8
0
  6
Continuous
 62
     7
370
    15
100
AcDbLine
 10
2351.5378262946
 20
819.0915614181
 30
0.0
 11
2376.6964943865
 21
812.2539745157
 31
0.0
  0
LINE
  5
39D
330
1F
100
AcDbEntity
  8
0
  6
Continuous
 62
     7
370
    15
100
AcDbLine
 10
2630.129534623
 20
745.090639194
 30
0.0
 11
2537.0238045315
 21
654.2165923366
 31
0.0
  0
LINE
  5
39E
330
1F
100
AcDbEntity
  8
0
  6
Continuous
 62
     7
370
    15
100
AcDbLine
 10
2630.129534623
 20
743.3763045926
 30
0.0
 11
2630.129534623
 21
745.090639194
 31
0.0
  0
LINE
  5
39F
330
1F
100
AcDbEntity
  8
0
  6
Continuous
 62
     7
370
    15
100
AcDbLine
 10
2634.0964454289
 20
740.955197067
 30
0.0
 11
2634.0964454289
 21
742.2981832362
 31
0.0
  0
LINE
  5
3A0
330
1F
100
AcDbEntity
  8
0
  6
Continuous
 62
     7
370
    15
100
AcDbLine
 10
2537.0238045315
 20
654.2165923366
 30
0.0
 11
2535.697177349
 21
654.5771411786
 31
0.0
  0
LINE
  5
3A1
330
1F
100
AcDbEntity
  8
0
  6
Continuous
 62
     7
370
    15
100
AcDbLine
 10
2630.129534623
 20
745.090639194
 30
0.0
 11
2628.8029074405
 21
745.4511880361
 31
0.0
  0
LINE
  5
3A2
330
1F
100
AcDbEntity
  8
0
  6
Continuous
 62
     7
370
    15
100
AcDbLine
 10
2628.8029074405
 20
745.4511880361
 30
0.0
 11
2535.697177349
 21
654.5771411786
 31
0.0
  0
LINE
  5
3A3
330
1F
100
AcDbEntity
  8
0
  6
Continuous
 62
     7
370
    15
100
AcDbLine
 10
2657.9887054559
 20
737.5191135115
 30
0.0
 11
2564.8829753643
 21
646.645066654
 31
0.0
  0
LINE
  5
3A4
330
1F
100
AcDbEntity
  8
0
  6
Continuous
 62
     7
370
    15
100
AcDbLine
 10
2657.9887054559
 20
735.8047789101
 30
0.0
 11
2657.9887054559
 21
737.5191135115
 31
0.0
  0
LINE
  5
3A5
330
1F
100
AcDbEntity
  8
0
  6
Continuous
 62
     7
370
    15
100
AcDbLine
 10
2661.9556162618
 20
733.3836713845
 30
0.0
 11
2661.9556162618
 21
734.7266575536
 31
0.0
  0
LINE
  5
3A6
330
1F
100
AcDbEntity
  8
0
  6
Continuous
 62
     7
370
    15
100
AcDbLine
 10
2564.8829753643
 20
646.645066654
 30
0.0
 11
2563.5563481818
 21
647.0056154961
 31
0.0
  0
LINE
  5
3A7
330
1F
100
AcDbEntity
  8
0
  6
Continuous
 62
     7
370
    15
100
AcDbLine
 10
2657.9887054559
 20
737.5191135115
 30
0.0
 11
2656.6620782733
 21
737.8796623535
 31
0.0
  0
LINE
  5
3A8
330
1F
100
AcDbEntity
  8
0
  6
Continuous
 62
     7
370
    15
100
AcDbLine
 10
2656.6620782733
 20
737.8796623535
 30
0.0
 11
2563.5563481818
 21
647.0056154961
 31
0.0
  0
LINE
  5
3A9
330
1F
100
AcDbEntity
  8
0
  6
Continuous
 62
     7
370
    15
100
AcDbLine
 10
2685.8478762887
 20
729.9475878289
 30
0.0
 11
2592.7421461972
 21
639.0735409715
 31
0.0
  0
LINE
  5
3AA
330
1F
100
AcDbEntity
  8
0
  6
Continuous
 62
     7
370
    15
100
AcDbLine
 10
2685.8478762887
 20
728.2332532275
 30
0.0
 11
2685.8478762887
 21
729.9475878289
 31
0.0
  0
LINE
  5
3AB
330
1F
100
AcDbEntity
  8
0
  6
Continuous
 62
     7
370
    15
100
AcDbLine
 10
2689.8147870946
 20
725.8121457019
 30
0.0
 11
2689.8147870946
 21
727.1551318711
 31
0.0
  0
LINE
  5
3AC
330
1F
100
AcDbEntity
  8
0
  6
Continuous
 62
     7
370
    15
100
AcDbLine
 10
2592.7421461972
 20
639.0735409715
 30
0.0
 11
2591.4155190146
 21
639.4340898135
 31
0.0
  0
LINE
  5
3AD
330
1F
100
AcDbEntity
  8
0
  6
Continuous
 62
     7
370
    15
100
AcDbLine
 10
2685.8478762887
 20
729.9475878289
 30
0.0
 11
2684.5212491062
 21
730.308136671
 31
0.0
  0
LINE
  5
3AE
330
1F
100
AcDbEntity
  8
0
  6
Continuous
 62
     7
370
    15
100
AcDbLine
 10
2684.5212491062
 20
730.308136671
 30
0.0
 11
2591.4155190146
 21
639.4340898135
 31
0.0
  0
LINE
  5
3AF
330
1F
100
AcDbEntity
  8
0
  6
Continuous
 62
     7
370
    15
100
AcDbLine
 10
2713.7070471215
 20
722.3760621464
 30
0.0
 11
2620.60131703
 21
631.5020152889
 31
0.0
  0
LINE
  5
3B0
330
1F
100
AcDbEntity
  8
0
  6
Continuous
 62
     7
370
    15
100
AcDbLine
 10
2713.7070471215
 20
720.661727545
 30
0.0
 11
2713.7070471215
 21
722.3760621464
 31
0.0
  0
LINE
  5
3B1
330
1F
100
AcDbEntity
  8
0
  6
Continuous
 62
     7
370
    15
100
AcDbLine
 10
2717.6739579274
 20
718.2406200194
 30
0.0
 11
2717.6739579274
 21
719.5836061886
 31
0.0
  0
LINE
  5
3B2
330
1F
100
AcDbEntity
  8
0
  6
Continuous
 62
     7
370
    15
100
AcDbLine
 10
2713.7070471215
 20
722.3760621464
 30
0.0
 11
2712.380419939
 21
722.7366109884
 31
0.0
  0
LINE
  5
3B3
330
1F
100
AcDbEntity
  8
0
  6
Continuous
 62
     7
370
    15
100
AcDbLine
 10
2620.60131703
 20
631.5020152889
 30
0.0
 11
2619.2746898475
 21
631.862564131
 31
0.0
  0
LINE
  5
3B4
330
1F
100
AcDbEntity
  8
0
  6
Continuous
 62
     7
370
    15
100
AcDbLine
 10
2712.380419939
 20
722.7366109884
 30
0.0
 11
2619.2746898475
 21
631.862564131
 31
0.0
  0
LINE
  5
3B5
330
1F
100
AcDbEntity
  8
0
  6
Continuous
 62
     7
370
    15
100
AcDbLine
 10
2741.5662179544
 20
714.8045364639
 30
0.0
 11
2648.4604878628
 21
623.9304896064
 31
0.0
  0
LINE
  5
3B6
330
1F
100
AcDbEntity
  8
0
  6
Continuous
 62
     7
370
    15
100
AcDbLine
 10
2741.5662179544
 20
713.0902018624
 30
0.0
 11
2741.5662179544
 21
714.8045364639
 31
0.0
  0
LINE
  5
3B7
330
1F
100
AcDbEntity
  8
0
  6
Continuous
 62
     7
370
    15
100
AcDbLine
 10
2745.5331287603
 20
710.6690943368
 30
0.0
 11
2745.5331287603
 21
712.012080506
 31
0.0
  0
LINE
  5
3B8
330
1F
100
AcDbEntity
  8
0
  6
Continuous
 62
     7
370
    15
100
AcDbLine
 10
2741.5662179544
 20
714.8045364639
 30
0.0
 11
2740.2395907719
 21
715.1650853059
 31
0.0
  0
LINE
  5
3B9
330
1F
100
AcDbEntity
  8
0
  6
Continuous
 62
     7
370
    15
100
AcDbLine
 10
2648.4604878628
 20
623.9304896064
 30
0.0
 11
2647.1338606803
 21
624.2910384484
 31
0.0
  0
LINE
  5
3BA
330
1F
100
AcDbEntity
  8
0
  6
Continuous
 62
     7
370
    15
100
AcDbLine
 10
2740.2395907719
 20
715.1650853059
 30
0.0
 11
2647.1338606803
 21
624.2910384484
 31
0.0
  0
LINE
  5
3BB
330
1F
100
AcDbEntity
  8
0
  6
Continuous
 62
     7
370
    15
100
AcDbLine
 10
2351.5378262946
 20
820.8058960195
 30
0.0
 11
2258.4320962031
 21
729.931849162
 31
0.0
  0
LINE
  5
3BC
330
1F
100
AcDbEntity
  8
0
  6
Continuous
 62
     7
370
    15
100
AcDbLine
 10
2351.5378262946
 20
819.0915614181
 30
0.0
 11
2351.5378262946
 21
820.8058960195
 31
0.0
  0
LINE
  5
3BD
330
1F
100
AcDbEntity
  8
0
  6
Continuous
 62
     7
370
    15
100
AcDbLine
 10
2355.5047371005
 20
816.6704538925
 30
0.0
 11
2355.5047371005
 21
818.0134400616
 31
0.0
  0
LINE
  5
3BE
330
1F
100
AcDbEntity
  8
0
  6
Continuous
 62
     7
370
    15
100
AcDbLine
 10
2258.4320962031
 20
729.931849162
 30
0.0
 11
2257.1054690206
 21
730.292398004
 31
0.0
  0
LINE
  5
3BF
330
1F
100
AcDbEntity
  8
0
  6
Continuous
 62
     7
370
    15
100
AcDbLine
 10
2351.5378262946
 20
820.8058960195
 30
0.0
 11
2350.2111991121
 21
821.1664448615
 31
0.0
  0
LINE
  5
3C0
330
1F
100
AcDbEntity
  8
0
  6
Continuous
 62
     7
370
    15
100
AcDbLine
 10
2350.2111991121
 20
821.1664448615
 30
0.0
 11
2257.1054690206
 21
730.292398004
 31
0.0
  0
LINE
  5
3C1
330
1F
100
AcDbEntity
  8
0
  6
Continuous
 62
     7
370
    15
100
AcDbLine
 10
2323.6786554618
 20
828.377421702
 30
0.0
 11
2230.5729253703
 21
737.5033748446
 31
0.0
  0
LINE
  5
3C2
330
1F
100
AcDbEntity
  8
0
  6
Continuous
 62
     7
370
    15
100
AcDbLine
 10
2323.6786554618
 20
826.6630871006
 30
0.0
 11
2323.6786554618
 21
828.377421702
 31
0.0
  0
LINE
  5
3C3
330
1F
100
AcDbEntity
  8
0
  6
Continuous
 62
     7
370
    15
100
AcDbLine
 10
2327.6455662677
 20
824.241979575
 30
0.0
 11
2327.6455662677
 21
825.5849657442
 31
0.0
  0
LINE
  5
3C4
330
1F
100
AcDbEntity
  8
0
  6
Continuous
 62
     7
370
    15
100
AcDbLine
 10
2230.5729253703
 20
737.5033748446
 30
0.0
 11
2229.2462981877
 21
737.8639236866
 31
0.0
  0
LINE
  5
3C5
330
1F
100
AcDbEntity
  8
0
  6
Continuous
 62
     7
370
    15
100
AcDbLine
 10
2323.6786554618
 20
828.377421702
 30
0.0
 11
2322.3520282793
 21
828.737970544
 31
0.0
  0
LINE
  5
3C6
330
1F
100
AcDbEntity
  8
0
  6
Continuous
 62
     7
370
    15
100
AcDbLine
 10
2322.3520282793
 20
828.737970544
 30
0.0
 11
2229.2462981877
 21
737.8639236866
 31
0.0
  0
LINE
  5
3C7
330
1F
100
AcDbEntity
  8
0
  6
Continuous
 62
     7
370
    15
100
AcDbLine
 10
2295.819484629
 20
835.9489473845
 30
0.0
 11
2202.7137545374
 21
745.0749005271
 31
0.0
  0
LINE
  5
3C8
330
1F
100
AcDbEntity
  8
0
  6
Continuous
 62
     7
370
    15
100
AcDbLine
 10
2295.819484629
 20
834.2346127831
 30
0.0
 11
2295.819484629
 21
835.9489473845
 31
0.0
  0
LINE
  5
3C9
330
1F
100
AcDbEntity
  8
0
  6
Continuous
 62
     7
370
    15
100
AcDbLine
 10
2299.7863954349
 20
831.8135052575
 30
0.0
 11
2299.7863954349
 21
833.1564914267
 31
0.0
  0
LINE
  5
3CA
330
1F
100
AcDbEntity
  8
0
  6
Continuous
 62
     7
370
    15
100
AcDbLine
 10
2202.7137545374
 20
745.0749005271
 30
0.0
 11
2201.3871273549
 21
745.4354493691
 31
0.0
  0
LINE
  5
3CB
330
1F
100
AcDbEntity
  8
0
  6
Continuous
 62
     7
370
    15
100
AcDbLine
 10
2295.819484629
 20
835.9489473845
 30
0.0
 11
2294.4928574464
 21
836.3094962266
 31
0.0
  0
LINE
  5
3CC
330
1F
100
AcDbEntity
  8
0
  6
Continuous
 62
     7
370
    15
100
AcDbLine
 10
2294.4928574464
 20
836.3094962266
 30
0.0
 11
2201.3871273549
 21
745.4354493691
 31
0.0
  0
LINE
  5
3CD
330
1F
100
AcDbEntity
  8
0
  6
Continuous
 62
     7
370
    15
100
AcDbLine
 10
2267.9603137961
 20
843.5204730671
 30
0.0
 11
2174.8545837046
 21
752.6464262096
 31
0.0
  0
LINE
  5
3CE
330
1F
100
AcDbEntity
  8
0
  6
Continuous
 62
     7
370
    15
100
AcDbLine
 10
2267.9603137961
 20
841.8061384657
 30
0.0
 11
2267.9603137961
 21
843.5204730671
 31
0.0
  0
LINE
  5
3CF
330
1F
100
AcDbEntity
  8
0
  6
Continuous
 62
     7
370
    15
100
AcDbLine
 10
2271.927224602
 20
839.3850309401
 30
0.0
 11
2271.927224602
 21
840.7280171093
 31
0.0
  0
LINE
  5
3D0
330
1F
100
AcDbEntity
  8
0
  6
Continuous
 62
     7
370
    15
100
AcDbLine
 10
2267.9603137961
 20
843.5204730671
 30
0.0
 11
2266.6336866136
 21
843.8810219091
 31
0.0
  0
LINE
  5
3D1
330
1F
100
AcDbEntity
  8
0
  6
Continuous
 62
     7
370
    15
100
AcDbLine
 10
2174.8545837046
 20
752.6464262096
 30
0.0
 11
2173.5279565221
 21
753.0069750517
 31
0.0
  0
LINE
  5
3D2
330
1F
100
AcDbEntity
  8
0
  6
Continuous
 62
     7
370
    15
100
AcDbLine
 10
2266.6336866136
 20
843.8810219091
 30
0.0
 11
2173.5279565221
 21
753.0069750517
 31
0.0
  0
LINE
  5
3D3
330
1F
100
AcDbEntity
  8
0
  6
Continuous
 62
     7
370
    15
100
AcDbLine
 10
2240.1011429633
 20
851.0919987496
 30
0.0
 11
2146.9954128717
 21
760.2179518922
 31
0.0
  0
LINE
  5
3D4
330
1F
100
AcDbEntity
  8
0
  6
Continuous
 62
     7
370
    15
100
AcDbLine
 10
2240.1011429633
 20
849.3776641482
 30
0.0
 11
2240.1011429633
 21
851.0919987496
 31
0.0
  0
LINE
  5
3D5
330
1F
100
AcDbEntity
  8
0
  6
Continuous
 62
     7
370
    15
100
AcDbLine
 10
2244.0680537692
 20
846.9565566226
 30
0.0
 11
2244.0680537692
 21
848.2995427918
 31
0.0
  0
LINE
  5
3D6
330
1F
100
AcDbEntity
  8
0
  6
Continuous
 62
     7
370
    15
100
AcDbLine
 10
2146.9954128717
 20
760.2179518922
 30
0.0
 11
2145.6687856892
 21
760.5785007342
 31
0.0
  0
LINE
  5
3D7
330
1F
100
AcDbEntity
  8
0
  6
Continuous
 62
     7
370
    15
100
AcDbLine
 10
2240.1011429633
 20
851.0919987496
 30
0.0
 11
2238.7745157808
 21
851.4525475917
 31
0.0
  0
LINE
  5
3D8
330
1F
100
AcDbEntity
  8
0
  6
Continuous
 62
     7
370
    15
100
AcDbLine
 10
2238.7745157808
 20
851.4525475917
 30
0.0
 11
2145.6687856892
 21
760.5785007342
 31
0.0
  0
LINE
  5
3D9
330
1F
100
AcDbEntity
  8
0
  6
Continuous
 62
     7
370
    15
100
AcDbLine
 10
2176.0450180998
 20
798.4738766143
 30
0.0
 11
2176.0450180998
 21
804.2973447487
 31
0.0
  0
LINE
  5
3DA
330
1F
100
AcDbEntity
  8
0
  6
Continuous
 62
     7
370
    15
100
AcDbLine
 10
2701.3893823762
 20
661.5200033065
 30
0.0
 11
2176.0450180998
 21
804.2973447487
 31
0.0
  0
LINE
  5
3DB
330
1F
100
AcDbEntity
  8
0
  6
Continuous
 62
     7
370
    15
100
AcDbLine
 10
2701.3893823762
 20
661.5200033065
 30
0.0
 11
2702.0894254596
 21
662.2032668167
 31
0.0
  0
LINE
  5
3DC
330
1F
100
AcDbEntity
  8
0
  6
Continuous
 62
     7
370
    15
100
AcDbLine
 10
2176.0450180998
 20
804.2973447487
 30
0.0
 11
2176.7450611832
 21
804.9806082589
 31
0.0
  0
LINE
  5
3DD
330
1F
100
AcDbEntity
  8
0
  6
Continuous
 62
     7
370
    15
100
AcDbLine
 10
2702.0894254596
 20
662.2032668167
 30
0.0
 11
2176.7450611832
 21
804.9806082589
 31
0.0
  0
LINE
  5
3DE
330
1F
100
AcDbEntity
  8
0
  6
Continuous
 62
     7
370
    15
100
AcDbLine
 10
2181.4120150725
 20
803.7122301925
 30
0.0
 11
2181.4120150725
 21
809.535698327
 31
0.0
  0
LINE
  5
3DF
330
1F
100
AcDbEntity
  8
0
  6
Continuous
 62
     7
370
    15
100
AcDbLine
 10
2706.7563793489
 20
666.7583568847
 30
0.0
 11
2181.4120150725
 21
809.535698327
 31
0.0
  0
LINE
  5
3E0
330
1F
100
AcDbEntity
  8
0
  6
Continuous
 62
     7
370
    15
100
AcDbLine
 10
2181.4120150725
 20
809.535698327
 30
0.0
 11
2182.1120581559
 21
810.2189618372
 31
0.0
  0
LINE
  5
3E1
330
1F
100
AcDbEntity
  8
0
  6
Continuous
 62
     7
370
    15
100
AcDbLine
 10
2707.4564224323
 20
667.4416203949
 30
0.0
 11
2182.1120581559
 21
810.2189618372
 31
0.0
  0
LINE
  5
3E2
330
1F
100
AcDbEntity
  8
0
  6
Continuous
 62
     7
370
    15
100
AcDbLine
 10
2706.7563793489
 20
666.7583568847
 30
0.0
 11
2707.4564224323
 21
667.4416203949
 31
0.0
  0
LINE
  5
3E3
330
1F
100
AcDbEntity
  8
0
  6
Continuous
 62
     7
370
    15
100
AcDbLine
 10
2186.7790120452
 20
808.9505837708
 30
0.0
 11
2186.7790120452
 21
814.7740519052
 31
0.0
  0
LINE
  5
3E4
330
1F
100
AcDbEntity
  8
0
  6
Continuous
 62
     7
370
    15
100
AcDbLine
 10
2712.1233763216
 20
671.996710463
 30
0.0
 11
2186.7790120452
 21
814.7740519052
 31
0.0
  0
LINE
  5
3E5
330
1F
100
AcDbEntity
  8
0
  6
Continuous
 62
     7
370
    15
100
AcDbLine
 10
2712.1233763216
 20
671.996710463
 30
0.0
 11
2712.823419405
 21
672.6799739732
 31
0.0
  0
LINE
  5
3E6
330
1F
100
AcDbEntity
  8
0
  6
Continuous
 62
     7
370
    15
100
AcDbLine
 10
2186.7790120452
 20
814.7740519052
 30
0.0
 11
2187.4790551286
 21
815.4573154154
 31
0.0
  0
LINE
  5
3E7
330
1F
100
AcDbEntity
  8
0
  6
Continuous
 62
     7
370
    15
100
AcDbLine
 10
2712.823419405
 20
672.6799739732
 30
0.0
 11
2187.4790551286
 21
815.4573154154
 31
0.0
  0
LINE
  5
3E8
330
1F
100
AcDbEntity
  8
0
  6
Continuous
 62
     7
370
    15
100
AcDbLine
 10
2192.1460090179
 20
820.0124054835
 30
0.0
 11
2192.8460521013
 21
820.6956689937
 31
0.0
  0
LINE
  5
3E9
330
1F
100
AcDbEntity
  8
0
  6
Continuous
 62
     7
370
    15
100
AcDbLine
 10
2718.1904163777
 20
677.9183275514
 30
0.0
 11
2192.8460521013
 21
820.6956689937
 31
0.0
  0
LINE
  5
3EA
330
1F
100
AcDbEntity
  8
0
  6
Continuous
 62
     7
370
    15
100
AcDbLine
 10
2717.4903732943
 20
677.2350640412
 30
0.0
 11
2718.1904163777
 21
677.9183275514
 31
0.0
  0
LINE
  5
3EB
330
1F
100
AcDbEntity
  8
0
  6
Continuous
 62
     7
370
    15
100
AcDbLine
 10
2717.4903732943
 20
677.2350640412
 30
0.0
 11
2192.1460090179
 21
820.0124054835
 31
0.0
  0
LINE
  5
3EC
330
1F
100
AcDbEntity
  8
0
  6
Continuous
 62
     7
370
    15
100
AcDbLine
 10
2192.1460090179
 20
814.188937349
 30
0.0
 11
2192.1460090179
 21
820.0124054835
 31
0.0
  0
LINE
  5
3ED
330
1F
100
AcDbEntity
  8
0
  6
Continuous
 62
     7
370
    15
100
AcDbLine
 10
2197.5130059906
 20
825.2507590617
 30
0.0
 11
2198.213049074
 21
825.9340225719
 31
0.0
  0
LINE
  5
3EE
330
1F
100
AcDbEntity
  8
0
  6
Continuous
 62
     7
370
    15
100
AcDbLine
 10
2723.5574133504
 20
683.1566811297
 30
0.0
 11
2198.213049074
 21
825.9340225719
 31
0.0
  0
LINE
  5
3EF
330
1F
100
AcDbEntity
  8
0
  6
Continuous
 62
     7
370
    15
100
AcDbLine
 10
2722.857370267
 20
682.4734176195
 30
0.0
 11
2723.5574133504
 21
683.1566811297
 31
0.0
  0
LINE
  5
3F0
330
1F
100
AcDbEntity
  8
0
  6
Continuous
 62
     7
370
    15
100
AcDbLine
 10
2722.857370267
 20
682.4734176195
 30
0.0
 11
2197.5130059906
 21
825.2507590617
 31
0.0
  0
LINE
  5
3F1
330
1F
100
AcDbEntity
  8
0
  6
Continuous
 62
     7
370
    15
100
AcDbLine
 10
2197.5130059906
 20
819.4272909273
 30
0.0
 11
2197.5130059906
 21
825.2507590617
 31
0.0
  0
LINE
  5
3F2
330
1F
100
AcDbEntity
  8
0
  6
Continuous
 62
     7
370
    15
100
AcDbLine
 10
2202.8800029633
 20
824.6656445055
 30
0.0
 11
2202.8800029633
 21
830.48911264
 31
0.0
  0
LINE
  5
3F3
330
1F
100
AcDbEntity
  8
0
  6
Continuous
 62
     7
370
    15
100
AcDbLine
 10
2728.2243672397
 20
687.7117711977
 30
0.0
 11
2202.8800029633
 21
830.48911264
 31
0.0
  0
LINE
  5
3F4
330
1F
100
AcDbEntity
  8
0
  6
Continuous
 62
     7
370
    15
100
AcDbLine
 10
2728.2243672397
 20
687.7117711977
 30
0.0
 11
2728.9244103231
 21
688.3950347079
 31
0.0
  0
LINE
  5
3F5
330
1F
100
AcDbEntity
  8
0
  6
Continuous
 62
     7
370
    15
100
AcDbLine
 10
2202.8800029633
 20
830.48911264
 30
0.0
 11
2203.5800460467
 21
831.1723761502
 31
0.0
  0
LINE
  5
3F6
330
1F
100
AcDbEntity
  8
0
  6
Continuous
 62
     7
370
    15
100
AcDbLine
 10
2728.9244103231
 20
688.3950347079
 30
0.0
 11
2203.5800460467
 21
831.1723761502
 31
0.0
  0
LINE
  5
3F7
330
1F
100
AcDbEntity
  8
0
  6
Continuous
 62
     7
370
    15
100
AcDbLine
 10
2208.246999936
 20
829.9039980838
 30
0.0
 11
2208.246999936
 21
835.7274662182
 31
0.0
  0
LINE
  5
3F8
330
1F
100
AcDbEntity
  8
0
  6
Continuous
 62
     7
370
    15
100
AcDbLine
 10
2733.5913642124
 20
692.950124776
 30
0.0
 11
2208.246999936
 21
835.7274662182
 31
0.0
  0
LINE
  5
3F9
330
1F
100
AcDbEntity
  8
0
  6
Continuous
 62
     7
370
    15
100
AcDbLine
 10
2208.246999936
 20
835.7274662182
 30
0.0
 11
2208.9470430194
 21
836.4107297284
 31
0.0
  0
LINE
  5
3FA
330
1F
100
AcDbEntity
  8
0
  6
Continuous
 62
     7
370
    15
100
AcDbLine
 10
2734.2914072958
 20
693.6333882862
 30
0.0
 11
2208.9470430194
 21
836.4107297284
 31
0.0
  0
LINE
  5
3FB
330
1F
100
AcDbEntity
  8
0
  6
Continuous
 62
     7
370
    15
100
AcDbLine
 10
2733.5913642124
 20
692.950124776
 30
0.0
 11
2734.2914072958
 21
693.6333882862
 31
0.0
  0
LINE
  5
3FC
330
1F
100
AcDbEntity
  8
0
  6
Continuous
 62
     7
370
    15
100
AcDbLine
 10
2213.6139969087
 20
835.142351662
 30
0.0
 11
2213.6139969087
 21
840.9658197965
 31
0.0
  0
LINE
  5
3FD
330
1F
100
AcDbEntity
  8
0
  6
Continuous
 62
     7
370
    15
100
AcDbLine
 10
2738.9583611851
 20
698.1884783542
 30
0.0
 11
2213.6139969087
 21
840.9658197965
 31
0.0
  0
LINE
  5
3FE
330
1F
100
AcDbEntity
  8
0
  6
Continuous
 62
     7
370
    15
100
AcDbLine
 10
2738.9583611851
 20
698.1884783542
 30
0.0
 11
2739.6584042685
 21
698.8717418644
 31
0.0
  0
LINE
  5
3FF
330
1F
100
AcDbEntity
  8
0
  6
Continuous
 62
     7
370
    15
100
AcDbLine
 10
2213.6139969087
 20
840.9658197965
 30
0.0
 11
2214.3140399921
 21
841.6490833067
 31
0.0
  0
LINE
  5
400
330
1F
100
AcDbEntity
  8
0
  6
Continuous
 62
     7
370
    15
100
AcDbLine
 10
2739.6584042685
 20
698.8717418644
 30
0.0
 11
2214.3140399921
 21
841.6490833067
 31
0.0
  0
LINE
  5
401
330
1F
100
AcDbEntity
  8
0
  6
Continuous
 62
     7
370
    15
100
AcDbLine
 10
2744.3253581578
 20
703.4268319325
 30
0.0
 11
2745.0254012412
 21
704.1100954427
 31
0.0
  0
LINE
  5
402
330
1F
100
AcDbEntity
  8
0
  6
Continuous
 62
     7
370
    15
100
AcDbLine
 10
2218.9809938814
 20
840.3807052403
 30
0.0
 11
2218.9809938814
 21
846.2041733747
 31
0.0
  0
LINE
  5
403
330
1F
100
AcDbEntity
  8
0
  6
Continuous
 62
     7
370
    15
100
AcDbLine
 10
2744.3253581578
 20
703.4268319325
 30
0.0
 11
2218.9809938814
 21
846.2041733747
 31
0.0
  0
LINE
  5
404
330
1F
100
AcDbEntity
  8
0
  6
Continuous
 62
     7
370
    15
100
AcDbLine
 10
2218.9809938814
 20
846.2041733747
 30
0.0
 11
2219.6810369648
 21
846.8874368849
 31
0.0
  0
LINE
  5
405
330
1F
100
AcDbEntity
  8
0
  6
Continuous
 62
     7
370
    15
100
AcDbLine
 10
2745.0254012412
 20
704.1100954427
 30
0.0
 11
2219.6810369648
 21
846.8874368849
 31
0.0
  0
LINE
  5
406
330
1F
100
AcDbEntity
  8
0
  6
Continuous
 62
     7
370
    15
100
AcDbLine
 10
2224.3479908541
 20
845.6190588185
 30
0.0
 11
2224.3479908541
 21
851.442526953
 31
0.0
  0
LINE
  5
407
330
1F
100
AcDbEntity
  8
0
  6
Continuous
 62
     7
370
    15
100
AcDbLine
 10
2749.6923551305
 20
708.6651855107
 30
0.0
 11
2224.3479908541
 21
851.442526953
 31
0.0
  0
LINE
  5
408
330
1F
100
AcDbEntity
  8
0
  6
Continuous
 62
     7
370
    15
100
AcDbLine
 10
2749.6923551305
 20
708.6651855107
 30
0.0
 11
2750.3923982139
 21
709.3484490209
 31
0.0
  0
LINE
  5
409
330
1F
100
AcDbEntity
  8
0
  6
Continuous
 62
     7
370
    15
100
AcDbLine
 10
2224.3479908541
 20
851.442526953
 30
0.0
 11
2225.0480339375
 21
852.1257904632
 31
0.0
  0
LINE
  5
40A
330
1F
100
AcDbEntity
  8
0
  6
Continuous
 62
     7
370
    15
100
AcDbLine
 10
2750.3923982139
 20
709.3484490209
 30
0.0
 11
2225.0480339375
 21
852.1257904632
 31
0.0
  0
LINE
  5
40B
330
1F
100
AcDbEntity
  8
0
  6
Continuous
 62
     7
370
    15
100
AcDbLine
 10
2696.0223854035
 20
656.2816497282
 30
0.0
 11
2696.7224284869
 21
656.9649132384
 31
0.0
  0
LINE
  5
40C
330
1F
100
AcDbEntity
  8
0
  6
Continuous
 62
     7
370
    15
100
AcDbLine
 10
2170.6780211271
 20
799.0589911705
 30
0.0
 11
2171.3780642105
 21
799.7422546807
 31
0.0
  0
LINE
  5
40D
330
1F
100
AcDbEntity
  8
0
  6
Continuous
 62
     7
370
    15
100
AcDbLine
 10
2696.7224284869
 20
656.9649132384
 30
0.0
 11
2171.3780642105
 21
799.7422546807
 31
0.0
  0
LINE
  5
40E
330
1F
100
AcDbEntity
  8
0
  6
Continuous
 62
     7
370
    15
100
AcDbLine
 10
2696.0223854035
 20
656.2816497282
 30
0.0
 11
2170.6780211271
 21
799.0589911705
 31
0.0
  0
LINE
  5
40F
330
1F
100
AcDbEntity
  8
0
  6
Continuous
 62
     7
370
    15
100
AcDbLine
 10
2170.6780211271
 20
793.235523036
 30
0.0
 11
2170.6780211271
 21
799.0589911705
 31
0.0
  0
LINE
  5
410
330
1F
100
AcDbEntity
  8
0
  6
Continuous
 62
     7
370
    15
100
AcDbLine
 10
2165.3110241544
 20
787.9971694578
 30
0.0
 11
2165.3110241544
 21
793.8206375922
 31
0.0
  0
LINE
  5
411
330
1F
100
AcDbEntity
  8
0
  6
Continuous
 62
     7
370
    15
100
AcDbLine
 10
2690.6553884308
 20
651.04329615
 30
0.0
 11
2165.3110241544
 21
793.8206375922
 31
0.0
  0
LINE
  5
412
330
1F
100
AcDbEntity
  8
0
  6
Continuous
 62
     7
370
    15
100
AcDbLine
 10
2165.3110241544
 20
793.8206375922
 30
0.0
 11
2166.0110672378
 21
794.5039011024
 31
0.0
  0
LINE
  5
413
330
1F
100
AcDbEntity
  8
0
  6
Continuous
 62
     7
370
    15
100
AcDbLine
 10
2691.3554315142
 20
651.7265596602
 30
0.0
 11
2166.0110672378
 21
794.5039011024
 31
0.0
  0
LINE
  5
414
330
1F
100
AcDbEntity
  8
0
  6
Continuous
 62
     7
370
    15
100
AcDbLine
 10
2690.6553884308
 20
651.04329615
 30
0.0
 11
2691.3554315142
 21
651.7265596602
 31
0.0
  0
LINE
  5
415
330
1F
100
AcDbEntity
  8
0
  6
Continuous
 62
     7
370
    15
100
AcDbLine
 10
2159.9440271818
 20
782.7588158795
 30
0.0
 11
2159.9440271818
 21
788.582284014
 31
0.0
  0
LINE
  5
416
330
1F
100
AcDbEntity
  8
0
  6
Continuous
 62
     7
370
    15
100
AcDbLine
 10
2685.2883914581
 20
645.8049425717
 30
0.0
 11
2159.9440271818
 21
788.582284014
 31
0.0
  0
LINE
  5
417
330
1F
100
AcDbEntity
  8
0
  6
Continuous
 62
     7
370
    15
100
AcDbLine
 10
2685.2883914581
 20
645.8049425717
 30
0.0
 11
2685.9884345415
 21
646.4882060819
 31
0.0
  0
LINE
  5
418
330
1F
100
AcDbEntity
  8
0
  6
Continuous
 62
     7
370
    15
100
AcDbLine
 10
2159.9440271818
 20
788.582284014
 30
0.0
 11
2160.6440702651
 21
789.2655475242
 31
0.0
  0
LINE
  5
419
330
1F
100
AcDbEntity
  8
0
  6
Continuous
 62
     7
370
    15
100
AcDbLine
 10
2685.9884345415
 20
646.4882060819
 30
0.0
 11
2160.6440702651
 21
789.2655475242
 31
0.0
  0
LINE
  5
41A
330
1F
100
AcDbEntity
  8
0
  6
Continuous
 62
     7
370
    15
100
AcDbLine
 10
2679.9213944854
 20
640.5665889935
 30
0.0
 11
2680.6214375688
 21
641.2498525037
 31
0.0
  0
LINE
  5
41B
330
1F
100
AcDbEntity
  8
0
  6
Continuous
 62
     7
370
    15
100
AcDbLine
 10
2154.5770302091
 20
783.3439304357
 30
0.0
 11
2155.2770732925
 21
784.0271939459
 31
0.0
  0
LINE
  5
41C
330
1F
100
AcDbEntity
  8
0
  6
Continuous
 62
     7
370
    15
100
AcDbLine
 10
2680.6214375688
 20
641.2498525037
 30
0.0
 11
2155.2770732925
 21
784.0271939459
 31
0.0
  0
LINE
  5
41D
330
1F
100
AcDbEntity
  8
0
  6
Continuous
 62
     7
370
    15
100
AcDbLine
 10
2679.9213944854
 20
640.5665889935
 30
0.0
 11
2154.5770302091
 21
783.3439304357
 31
0.0
  0
LINE
  5
41E
330
1F
100
AcDbEntity
  8
0
  6
Continuous
 62
     7
370
    15
100
AcDbLine
 10
2154.5770302091
 20
777.5204623013
 30
0.0
 11
2154.5770302091
 21
783.3439304357
 31
0.0
  0
LINE
  5
41F
330
1F
100
AcDbEntity
  8
0
  6
Continuous
 62
     7
370
    15
100
AcDbLine
 10
2149.2100332364
 20
778.1055768575
 30
0.0
 11
2149.9100763198
 21
778.7888403677
 31
0.0
  0
LINE
  5
420
330
1F
100
AcDbEntity
  8
0
  6
Continuous
 62
     7
370
    15
100
AcDbLine
 10
2675.2544405961
 20
636.0114989254
 30
0.0
 11
2149.9100763198
 21
778.7888403677
 31
0.0
  0
LINE
  5
421
330
1F
100
AcDbEntity
  8
0
  6
Continuous
 62
     7
370
    15
100
AcDbLine
 10
2674.5543975127
 20
635.3282354152
 30
0.0
 11
2675.2544405961
 21
636.0114989254
 31
0.0
  0
LINE
  5
422
330
1F
100
AcDbEntity
  8
0
  6
Continuous
 62
     7
370
    15
100
AcDbLine
 10
2674.5543975127
 20
635.3282354152
 30
0.0
 11
2149.2100332364
 21
778.1055768575
 31
0.0
  0
LINE
  5
423
330
1F
100
AcDbEntity
  8
0
  6
Continuous
 62
     7
370
    15
100
AcDbLine
 10
2149.2100332364
 20
772.282108723
 30
0.0
 11
2149.2100332364
 21
778.1055768575
 31
0.0
  0
LINE
  5
424
330
1F
100
AcDbEntity
  8
0
  6
Continuous
 62
     7
370
    15
100
AcDbLine
 10
2669.1874005401
 20
630.089881837
 30
0.0
 11
2669.8874436234
 21
630.7731453472
 31
0.0
  0
LINE
  5
425
330
1F
100
AcDbEntity
  8
0
  6
Continuous
 62
     7
370
    15
100
AcDbLine
 10
2143.8430362637
 20
767.0437551448
 30
0.0
 11
2143.8430362637
 21
772.8672232792
 31
0.0
  0
LINE
  5
426
330
1F
100
AcDbEntity
  8
0
  6
Continuous
 62
     7
370
    15
100
AcDbLine
 10
2669.1874005401
 20
630.089881837
 30
0.0
 11
2143.8430362637
 21
772.8672232792
 31
0.0
  0
LINE
  5
427
330
1F
100
AcDbEntity
  8
0
  6
Continuous
 62
     7
370
    15
100
AcDbLine
 10
2143.8430362637
 20
772.8672232792
 30
0.0
 11
2144.5430793471
 21
773.5504867894
 31
0.0
  0
LINE
  5
428
330
1F
100
AcDbEntity
  8
0
  6
Continuous
 62
     7
370
    15
100
AcDbLine
 10
2669.8874436234
 20
630.7731453472
 30
0.0
 11
2144.5430793471
 21
773.5504867894
 31
0.0
  0
LINE
  5
429
330
1F
100
AcDbEntity
  8
0
  6
Continuous
 62
     7
370
    15
100
AcDbLine
 10
2663.8204035674
 20
624.8515282587
 30
0.0
 11
2664.5204466508
 21
625.5347917689
 31
0.0
  0
LINE
  5
42A
330
1F
100
AcDbEntity
  8
0
  6
Continuous
 62
     7
370
    15
100
AcDbLine
 10
2138.476039291
 20
767.628869701
 30
0.0
 11
2139.1760823744
 21
768.3121332112
 31
0.0
  0
LINE
  5
42B
330
1F
100
AcDbEntity
  8
0
  6
Continuous
 62
     7
370
    15
100
AcDbLine
 10
2664.5204466508
 20
625.5347917689
 30
0.0
 11
2139.1760823744
 21
768.3121332112
 31
0.0
  0
LINE
  5
42C
330
1F
100
AcDbEntity
  8
0
  6
Continuous
 62
     7
370
    15
100
AcDbLine
 10
2663.8204035674
 20
624.8515282587
 30
0.0
 11
2138.476039291
 21
767.628869701
 31
0.0
  0
LINE
  5
42D
330
1F
100
AcDbEntity
  8
0
  6
Continuous
 62
     7
370
    15
100
AcDbLine
 10
2138.476039291
 20
762.5333350833
 30
0.0
 11
2138.476039291
 21
767.628869701
 31
0.0
  0
ENDSEC
  0
SECTION
  2
OBJECTS
  0
DICTIONARY
  5
C
330
0
100
AcDbDictionary
281
     1
  3
ACAD_GROUP
350
D
  3
ACAD_LAYOUT
350
1A
  3
ACAD_MLINESTYLE
350
17
  3
ACAD_PLOTSETTINGS
350
19
  3
ACAD_PLOTSTYLENAME
350
E
  3
ACAD_SCALELIST
350
47
  0
DICTIONARY
  5
D
102
{ACAD_REACTORS
330
C
102
}
330
C
100
AcDbDictionary
281
     1
  0
DICTIONARY
  5
1A
102
{ACAD_REACTORS
330
C
102
}
330
C
100
AcDbDictionary
281
     1
  3
Layout1
350
1E
  3
Layout2
350
26
  3
Model
350
22
  0
DICTIONARY
  5
17
102
{ACAD_REACTORS
330
C
102
}
330
C
100
AcDbDictionary
281
     1
  3
Standard
350
18
  0
DICTIONARY
  5
19
102
{ACAD_REACTORS
330
C
102
}
330
C
100
AcDbDictionary
281
     1
  0
ACDBDICTIONARYWDFLT
  5
E
102
{ACAD_REACTORS
330
C
102
}
330
C
100
AcDbDictionary
281
     1
  3
Normal
350
F
100
AcDbDictionaryWithDefault
340
F
  0
DICTIONARY
  5
47
102
{ACAD_REACTORS
330
C
102
}
330
C
100
AcDbDictionary
281
     1
  3
A0
350
48
  3
A1
350
49
  3
A2
350
4A
  3
A3
350
4B
  3
A4
350
4C
  3
A5
350
4D
  3
A6
350
4E
  3
A7
350
4F
  3
A8
350
50
  3
A9
350
51
  3
B0
350
52
  3
B1
350
53
  3
B2
350
54
  3
B3
350
55
  3
B4
350
56
  3
B5
350
57
  3
B6
350
58
  3
B7
350
59
  3
B8
350
5A
  3
B9
350
5B
  3
C0
350
5C
  3
C1
350
5D
  3
C2
350
5E
  3
C3
350
5F
  3
C4
350
60
  3
C5
350
61
  3
C6
350
62
  3
C7
350
63
  3
C8
350
64
  3
C9
350
65
  3
D0
350
66
  3
D1
350
67
  3
D2
350
68
  0
LAYOUT
  5
1E
102
{ACAD_REACTORS
330
1A
102
}
330
1A
100
AcDbPlotSettings
  1

  2
none_device
  4

  6

 40
0.0
 41
0.0
 42
0.0
 43
0.0
 44
0.0
 45
0.0
 46
0.0
 47
0.0
 48
0.0
 49
0.0
140
0.0
141
0.0
142
1.0
143
1.0
 70
   688
 72
     1
 73
     0
 74
     5
  7

 75
    16
147
1.0
148
0.0
149
0.0
100
AcDbLayout
  1
Layout1
 70
     1
 71
     1
 10
0.0
 20
0.0
 11
420.0
 21
297.0
 12
0.0
 22
0.0
 32
0.0
 14
1.0000000000E+20
 24
1.0000000000E+20
 34
1.0000000000E+20
 15
-1.0000000000E+20
 25
-1.0000000000E+20
 35
-1.0000000000E+20
146
0.0
 13
0.0
 23
0.0
 33
0.0
 16
1.0
 26
0.0
 36
0.0
 17
0.0
 27
1.0
 37
0.0
 76
     0
330
1B
  0
LAYOUT
  5
26
102
{ACAD_REACTORS
330
1A
102
}
330
1A
100
AcDbPlotSettings
  1

  2
none_device
  4

  6

 40
0.0
 41
0.0
 42
0.0
 43
0.0
 44
0.0
 45
0.0
 46
0.0
 47
0.0
 48
0.0
 49
0.0
140
0.0
141
0.0
142
1.0
143
1.0
 70
   688
 72
     1
 73
     0
 74
     5
  7

 75
    16
147
1.0
148
0.0
149
0.0
100
AcDbLayout
  1
Layout2
 70
     1
 71
     2
 10
0.0
 20
0.0
 11
0.0
 21
0.0
 12
0.0
 22
0.0
 32
0.0
 14
0.0
 24
0.0
 34
0.0
 15
0.0
 25
0.0
 35
0.0
146
0.0
 13
0.0
 23
0.0
 33
0.0
 16
1.0
 26
0.0
 36
0.0
 17
0.0
 27
1.0
 37
0.0
 76
     0
330
23
  0
LAYOUT
  5
22
102
{ACAD_REACTORS
330
1A
102
}
330
1A
100
AcDbPlotSettings
  1

  2
none_device
  4
Letter_(8.50_x_11.00_Inches)
  6

 40
6.35
 41
6.35
 42
6.35000508
 43
6.35000508
 44
215.9
 45
279.4
 46
0.0
 47
0.0
 48
0.0
 49
0.0
140
0.0
141
0.0
142
1.0
143
1.0
 70
  1712
 72
     1
 73
     0
 74
     0
  7

 75
     0
147
1.0
148
0.0
149
0.0
100
AcDbLayout
  1
Model
 70
     1
 71
     0
 10
0.0
 20
0.0
 11
2970.0
 21
2100.0
 12
0.0
 22
0.0
 32
0.0
 14
0.0
 24
0.0
 34
0.0
 15
2970.0
 25
2100.0
 35
0.0
146
0.0
 13
0.0
 23
0.0
 33
0.0
 16
1.0
 26
0.0
 36
0.0
 17
0.0
 27
1.0
 37
0.0
 76
     0
330
1F
331
29
  0
MLINESTYLE
  5
18
102
{ACAD_REACTORS
330
17
102
}
330
17
100
AcDbMlineStyle
  2
Standard
 70
     0
  3

 62
   256
 51
90.0
 52
90.0
 71
     2
 49
0.5
 62
   256
  6
BYLAYER
 49
-0.5
 62
   256
  6
BYLAYER
  0
ACDBPLACEHOLDER
  5
F
102
{ACAD_REACTORS
330
E
102
}
330
E
  0
SCALE
  5
48
102
{ACAD_REACTORS
330
47
102
}
330
47
100
AcDbScale
 70
     0
300
1:1
140
1.0
141
1.0
290
     1
  0
SCALE
  5
49
102
{ACAD_REACTORS
330
47
102
}
330
47
100
AcDbScale
 70
     0
300
1:2
140
1.0
141
2.0
290
     0
  0
SCALE
  5
4A
102
{ACAD_REACTORS
330
47
102
}
330
47
100
AcDbScale
 70
     0
300
1:4
140
1.0
141
4.0
290
     0
  0
SCALE
  5
4B
102
{ACAD_REACTORS
330
47
102
}
330
47
100
AcDbScale
 70
     0
300
1:5
140
1.0
141
5.0
290
     0
  0
SCALE
  5
4C
102
{ACAD_REACTORS
330
47
102
}
330
47
100
AcDbScale
 70
     0
300
1:8
140
1.0
141
8.0
290
     0
  0
SCALE
  5
4D
102
{ACAD_REACTORS
330
47
102
}
330
47
100
AcDbScale
 70
     0
300
1:10
140
1.0
141
10.0
290
     0
  0
SCALE
  5
4E
102
{ACAD_REACTORS
330
47
102
}
330
47
100
AcDbScale
 70
     0
300
1:16
140
1.0
141
16.0
290
     0
  0
SCALE
  5
4F
102
{ACAD_REACTORS
330
47
102
}
330
47
100
AcDbScale
 70
     0
300
1:20
140
1.0
141
20.0
290
     0
  0
SCALE
  5
50
102
{ACAD_REACTORS
330
47
102
}
330
47
100
AcDbScale
 70
     0
300
1:30
140
1.0
141
30.0
290
     0
  0
SCALE
  5
51
102
{ACAD_REACTORS
330
47
102
}
330
47
100
AcDbScale
 70
     0
300
1:40
140
1.0
141
40.0
290
     0
  0
SCALE
  5
52
102
{ACAD_REACTORS
330
47
102
}
330
47
100
AcDbScale
 70
     0
300
1:50
140
1.0
141
50.0
290
     0
  0
SCALE
  5
53
102
{ACAD_REACTORS
330
47
102
}
330
47
100
AcDbScale
 70
     0
300
1:100
140
1.0
141
100.0
290
     0
  0
SCALE
  5
54
102
{ACAD_REACTORS
330
47
102
}
330
47
100
AcDbScale
 70
     0
300
2:1
140
2.0
141
1.0
290
     0
  0
SCALE
  5
55
102
{ACAD_REACTORS
330
47
102
}
330
47
100
AcDbScale
 70
     0
300
4:1
140
4.0
141
1.0
290
     0
  0
SCALE
  5
56
102
{ACAD_REACTORS
330
47
102
}
330
47
100
AcDbScale
 70
     0
300
8:1
140
8.0
141
1.0
290
     0
  0
SCALE
  5
57
102
{ACAD_REACTORS
330
47
102
}
330
47
100
AcDbScale
 70
     0
300
10:1
140
10.0
141
1.0
290
     0
  0
SCALE
  5
58
102
{ACAD_REACTORS
330
47
102
}
330
47
100
AcDbScale
 70
     0
300
100:1
140
100.0
141
1.0
290
     0
  0
SCALE
  5
59
102
{ACAD_REACTORS
330
47
102
}
330
47
100
AcDbScale
 70
     0
300
1/128" = 1'-0"
140
0.0078125
141
12.0
290
     0
  0
SCALE
  5
5A
102
{ACAD_REACTORS
330
47
102
}
330
47
100
AcDbScale
 70
     0
300
1/64" = 1'-0"
140
0.015625
141
12.0
290
     0
  0
SCALE
  5
5B
102
{ACAD_REACTORS
330
47
102
}
330
47
100
AcDbScale
 70
     0
300
1/32" = 1'-0"
140
0.03125
141
12.0
290
     0
  0
SCALE
  5
5C
102
{ACAD_REACTORS
330
47
102
}
330
47
100
AcDbScale
 70
     0
300
1/16" = 1'-0"
140
0.0625
141
12.0
290
     0
  0
SCALE
  5
5D
102
{ACAD_REACTORS
330
47
102
}
330
47
100
AcDbScale
 70
     0
300
3/32" = 1'-0"
140
0.09375
141
12.0
290
     0
  0
SCALE
  5
5E
102
{ACAD_REACTORS
330
47
102
}
330
47
100
AcDbScale
 70
     0
300
1/8" = 1'-0"
140
0.125
141
12.0
290
     0
  0
SCALE
  5
5F
102
{ACAD_REACTORS
330
47
102
}
330
47
100
AcDbScale
 70
     0
300
3/16" = 1'-0"
140
0.1875
141
12.0
290
     0
  0
SCALE
  5
60
102
{ACAD_REACTORS
330
47
102
}
330
47
100
AcDbScale
 70
     0
300
1/4" = 1'-0"
140
0.25
141
12.0
290
     0
  0
SCALE
  5
61
102
{ACAD_REACTORS
330
47
102
}
330
47
100
AcDbScale
 70
     0
300
3/8" = 1'-0"
140
0.375
141
12.0
290
     0
  0
SCALE
  5
62
102
{ACAD_REACTORS
330
47
102
}
330
47
100
AcDbScale
 70
     0
300
1/2" = 1'-0"
140
0.5
141
12.0
290
     0
  0
SCALE
  5
63
102
{ACAD_REACTORS
330
47
102
}
330
47
100
AcDbScale
 70
     0
300
3/4" = 1'-0"
140
0.75
141
12.0
290
     0
  0
SCALE
  5
64
102
{ACAD_REACTORS
330
47
102
}
330
47
100
AcDbScale
 70
     0
300
1" = 1'-0"
140
1.0
141
12.0
290
     0
  0
SCALE
  5
65
102
{ACAD_REACTORS
330
47
102
}
330
47
100
AcDbScale
 70
     0
300
1-1/2" = 1'-0"
140
1.5
141
12.0
290
     0
  0
SCALE
  5
66
102
{ACAD_REACTORS
330
47
102
}
330
47
100
AcDbScale
 70
     0
300
3" = 1'-0"
140
3.0
141
12.0
290
     0
  0
SCALE
  5
67
102
{ACAD_REACTORS
330
47
102
}
330
47
100
AcDbScale
 70
     0
300
6" = 1'-0"
140
6.0
141
12.0
290
     0
  0
SCALE
  5
68
102
{ACAD_REACTORS
330
47
102
}
330
47
100
AcDbScale
 70
     0
300
1'-0" = 1'-0"
140
12.0
141
12.0
290
     0
  0
ENDSEC
  0
EOF
