ISO-10303-21;
HEADER;
FILE_DESCRIPTION (( 'STEP AP203' ),
    '1' );
FILE_NAME ('3564.STEP',
    '2021-08-17T11:52:56',
    ( '' ),
    ( '' ),
    'SwSTEP 2.0',
    'SolidWorks 2018',
    '' );
FILE_SCHEMA (( 'CONFIG_CONTROL_DESIGN' ));
ENDSEC;

DATA;
#1 = FACE_OUTER_BOUND ( 'NONE', #243, .T. ) ;
#2 = DATE_AND_TIME ( #207, #107 ) ;
#3 =( GEOMETRIC_REPRESENTATION_CONTEXT ( 3 ) GLOBAL_UNCERTAINTY_ASSIGNED_CONTEXT ( ( #110 ) ) GLOBAL_UNIT_ASSIGNED_CONTEXT ( ( #37, #95, #196 ) ) REPRESENTATION_CONTEXT ( 'NONE', 'WORKASPACE' ) );
#4 = LOCAL_TIME ( 13, 52, 56.00000000000000000, #59 ) ;
#5 =( BOUNDED_CURVE ( )  B_SPLINE_CURVE ( 3, ( #174, #238, #99, #128 ),
 .UNSPECIFIED., .F., .T. ) 
 B_SPLINE_CURVE_WITH_KNOTS ( ( 4, 4 ),
 ( 4.712388980384689674, 7.853981633974482790 ),
 .UNSPECIFIED. ) 
 CURVE ( )  GEOMETRIC_REPRESENTATION_ITEM ( )  RATIONAL_B_SPLINE_CURVE ( ( 1.000000000000000000, 0.3333333333333333703, 0.3333333333333333703, 1.000000000000000000 ) ) 
 REPRESENTATION_ITEM ( '' )  );
#6 = APPROVAL_DATE_TIME ( #168, #132 ) ;
#7 =( BOUNDED_CURVE ( )  B_SPLINE_CURVE ( 3, ( #214, #69, #93, #25 ),
 .UNSPECIFIED., .F., .T. ) 
 B_SPLINE_CURVE_WITH_KNOTS ( ( 4, 4 ),
 ( 4.712388980384689674, 7.853981633974482790 ),
 .UNSPECIFIED. ) 
 CURVE ( )  GEOMETRIC_REPRESENTATION_ITEM ( )  RATIONAL_B_SPLINE_CURVE ( ( 1.000000000000000000, 0.3333333333333333703, 0.3333333333333333703, 1.000000000000000000 ) ) 
 REPRESENTATION_ITEM ( '' )  );
#8 = EDGE_CURVE ( 'NONE', #217, #247, #7, .T. ) ;
#9 = CARTESIAN_POINT ( 'NONE',  ( 1.040834085586084257E-14, -40.00000000000000000, 0.000000000000000000 ) ) ;
#10 = DIRECTION ( 'NONE',  ( -0.4999999999999919509, -4.592425496802550306E-16, -0.8660254037844432595 ) ) ;
#11 = CC_DESIGN_PERSON_AND_ORGANIZATION_ASSIGNMENT ( #141, #163, ( #231 ) ) ;
#12 = CYLINDRICAL_SURFACE ( 'NONE', #138, 40.00000000000000000 ) ;
#13 = PERSON_AND_ORGANIZATION ( #47, #180 ) ;
#14 = LOCAL_TIME ( 13, 52, 56.00000000000000000, #160 ) ;
#15 = CC_DESIGN_APPROVAL ( #228, ( #199 ) ) ;
#16 = CARTESIAN_POINT ( 'NONE',  ( -92.37604307034015960, -40.00000000000002132, -9.499042902572929484E-13 ) ) ;
#17 = APPLICATION_CONTEXT ( 'configuration controlled 3d designs of mechanical parts and assemblies' ) ;
#18 = ORIENTED_EDGE ( 'NONE', *, *, #109, .T. ) ;
#19 = APPROVAL_ROLE ( '' ) ;
#20 = PERSON_AND_ORGANIZATION ( #47, #180 ) ;
#21 = CC_DESIGN_APPROVAL ( #230, ( #31 ) ) ;
#22 = APPROVAL_STATUS ( 'not_yet_approved' ) ;
#23 = APPROVAL_PERSON_ORGANIZATION ( #240, #228, #121 ) ;
#24 = CC_DESIGN_PERSON_AND_ORGANIZATION_ASSIGNMENT ( #90, #63, ( #194 ) ) ;
#25 = CARTESIAN_POINT ( 'NONE',  ( 1.040834085586084257E-14, -40.00000000000000000, 0.000000000000000000 ) ) ;
#26 = DATE_AND_TIME ( #68, #4 ) ;
#27 = CC_DESIGN_SECURITY_CLASSIFICATION ( #199, ( #194 ) ) ;
#28 = CLOSED_SHELL ( 'NONE', ( #241, #181, #198, #103, #118, #134 ) ) ;
#29 =( BOUNDED_CURVE ( )  B_SPLINE_CURVE ( 3, ( #242, #117, #16, #161 ),
 .UNSPECIFIED., .F., .T. ) 
 B_SPLINE_CURVE_WITH_KNOTS ( ( 4, 4 ),
 ( 4.712388980384689674, 7.853981633974482790 ),
 .UNSPECIFIED. ) 
 CURVE ( )  GEOMETRIC_REPRESENTATION_ITEM ( )  RATIONAL_B_SPLINE_CURVE ( ( 1.000000000000000000, 0.3333333333333333703, 0.3333333333333333703, 1.000000000000000000 ) ) 
 REPRESENTATION_ITEM ( '' )  );
#30 = PERSON_AND_ORGANIZATION ( #47, #180 ) ;
#31 = SECURITY_CLASSIFICATION ( '', '', #38 ) ;
#32 = CC_DESIGN_SECURITY_CLASSIFICATION ( #31, ( #200 ) ) ;
#33 = CALENDAR_DATE ( 2021, 17, 8 ) ;
#34 = LOCAL_TIME ( 13, 52, 56.00000000000000000, #244 ) ;
#35 = APPROVAL ( #22, 'UNSPECIFIED' ) ;
#36 = PRODUCT ( '3564', '3564', '', ( #106 ) ) ;
#37 =( LENGTH_UNIT ( ) NAMED_UNIT ( * ) SI_UNIT ( .MILLI., .METRE. ) );
#38 = SECURITY_CLASSIFICATION_LEVEL ( 'unclassified' ) ;
#39 = APPLICATION_PROTOCOL_DEFINITION ( 'international standard', 'config_control_design', 1994, #17 ) ;
#40 = APPLICATION_CONTEXT ( 'configuration controlled 3d designs of mechanical parts and assemblies' ) ;
#41 = APPROVAL_ROLE ( '' ) ;
#42 = COORDINATED_UNIVERSAL_TIME_OFFSET ( 1, 0, .AHEAD. ) ;
#43 = CC_DESIGN_APPROVAL ( #35, ( #264 ) ) ;
#44 = ORIENTED_EDGE ( 'NONE', *, *, #8, .T. ) ;
#45 = COORDINATED_UNIVERSAL_TIME_OFFSET ( 1, 0, .AHEAD. ) ;
#46 = CC_DESIGN_PERSON_AND_ORGANIZATION_ASSIGNMENT ( #126, #165, ( #264 ) ) ;
#47 = PERSON ( 'UNSPECIFIED', 'UNSPECIFIED', 'UNSPECIFIED', ('UNSPECIFIED'), ('UNSPECIFIED'), ('UNSPECIFIED') ) ;
#48 = CARTESIAN_POINT ( 'NONE',  ( -46.18802153516980979, 39.99999999999995737, -79.99999999999998579 ) ) ;
#49 = CARTESIAN_POINT ( 'NONE',  ( -2.081668171172168513E-14, 40.00000000000000000, 0.000000000000000000 ) ) ;
#50 = ORIENTED_EDGE ( 'NONE', *, *, #98, .F. ) ;
#51 = APPROVAL_PERSON_ORGANIZATION ( #150, #230, #203 ) ;
#52 = SHAPE_DEFINITION_REPRESENTATION ( #219, #125 ) ;
#53 = CARTESIAN_POINT ( 'NONE',  ( 0.000000000000000000, 0.000000000000000000, 0.000000000000000000 ) ) ;
#54 = CC_DESIGN_PERSON_AND_ORGANIZATION_ASSIGNMENT ( #30, #65, ( #199 ) ) ;
#55 = DIRECTION ( 'NONE',  ( -0.5000000000000041078, -4.592425496802587777E-16, 0.8660254037844363761 ) ) ;
#56 = FACE_OUTER_BOUND ( 'NONE', #152, .T. ) ;
#57 = DIRECTION ( 'NONE',  ( 0.8660254037844362651, 2.651438096812259522E-16, 0.5000000000000038858 ) ) ;
#58 = CALENDAR_DATE ( 2021, 17, 8 ) ;
#59 = COORDINATED_UNIVERSAL_TIME_OFFSET ( 1, 0, .AHEAD. ) ;
#60 = CC_DESIGN_PERSON_AND_ORGANIZATION_ASSIGNMENT ( #251, #80, ( #194 ) ) ;
#61 = APPROVAL_STATUS ( 'not_yet_approved' ) ;
#62 = LOCAL_TIME ( 13, 52, 56.00000000000000000, #42 ) ;
#63 = PERSON_AND_ORGANIZATION_ROLE ( 'design_supplier' ) ;
#64 = DIRECTION ( 'NONE',  ( 0.000000000000000000, 0.000000000000000000, 1.000000000000000000 ) ) ;
#65 = PERSON_AND_ORGANIZATION_ROLE ( 'classification_officer' ) ;
#66 = FACE_OUTER_BOUND ( 'NONE', #256, .T. ) ;
#67 = PRODUCT_RELATED_PRODUCT_CATEGORY ( 'detail', '', ( #36 ) ) ;
#68 = CALENDAR_DATE ( 2021, 17, 8 ) ;
#69 = CARTESIAN_POINT ( 'NONE',  ( -46.18802153517056297, 40.00000000000000000, 79.99999999999997158 ) ) ;
#70 = LOCAL_TIME ( 13, 52, 56.00000000000000000, #122 ) ;
#71 = CC_DESIGN_DATE_AND_TIME_ASSIGNMENT ( #195, #184, ( #199 ) ) ;
#72 = DIRECTION ( 'NONE',  ( 1.000000000000000000, 0.000000000000000000, 0.000000000000000000 ) ) ;
#73 = DESIGN_CONTEXT ( 'detailed design', #82, 'design' ) ;
#74 = FACE_OUTER_BOUND ( 'NONE', #158, .T. ) ;
#75 = CARTESIAN_POINT ( 'NONE',  ( 92.37604307034015960, 40.00000000000004263, 3.218150330043683864E-13 ) ) ;
#76 = CALENDAR_DATE ( 2021, 17, 8 ) ;
#77 = APPROVAL ( #61, 'UNSPECIFIED' ) ;
#78 = DIRECTION ( 'NONE',  ( 0.4999999999999980016, -1.530808498934197734E-16, 0.8660254037844398178 ) ) ;
#79 = FACE_OUTER_BOUND ( 'NONE', #139, .T. ) ;
#80 = PERSON_AND_ORGANIZATION_ROLE ( 'creator' ) ;
#81 = PRODUCT_DEFINITION_SHAPE ( 'NONE', 'NONE',  #231 ) ;
#82 = APPLICATION_CONTEXT ( 'configuration controlled 3d designs of mechanical parts and assemblies' ) ;
#83 = CYLINDRICAL_SURFACE ( 'NONE', #101, 40.00000000000000000 ) ;
#84 =( BOUNDED_CURVE ( )  B_SPLINE_CURVE ( 3, ( #189, #151, #48, #49 ),
 .UNSPECIFIED., .F., .T. ) 
 B_SPLINE_CURVE_WITH_KNOTS ( ( 4, 4 ),
 ( 1.570796326794896114, 4.712388980384688786 ),
 .UNSPECIFIED. ) 
 CURVE ( )  GEOMETRIC_REPRESENTATION_ITEM ( )  RATIONAL_B_SPLINE_CURVE ( ( 1.000000000000000000, 0.3333333333333335369, 0.3333333333333335369, 1.000000000000000000 ) ) 
 REPRESENTATION_ITEM ( '' )  );
#85 = APPROVAL_PERSON_ORGANIZATION ( #159, #132, #41 ) ;
#86 = COORDINATED_UNIVERSAL_TIME_OFFSET ( 1, 0, .AHEAD. ) ;
#87 = APPROVAL_ROLE ( '' ) ;
#88 = CC_DESIGN_PERSON_AND_ORGANIZATION_ASSIGNMENT ( #13, #266, ( #253 ) ) ;
#89 = ORIENTED_EDGE ( 'NONE', *, *, #109, .F. ) ;
#90 = PERSON_AND_ORGANIZATION ( #47, #180 ) ;
#91 = ORIENTED_EDGE ( 'NONE', *, *, #130, .F. ) ;
#92 = APPROVAL_DATE_TIME ( #211, #186 ) ;
#93 = CARTESIAN_POINT ( 'NONE',  ( -46.18802153517052034, -40.00000000000000711, 80.00000000000000000 ) ) ;
#94 = CYLINDRICAL_SURFACE ( 'NONE', #133, 40.00000000000000000 ) ;
#95 =( NAMED_UNIT ( * ) PLANE_ANGLE_UNIT ( ) SI_UNIT ( $, .RADIAN. ) );
#96 = PERSON_AND_ORGANIZATION ( #47, #180 ) ;
#97 = PERSON_AND_ORGANIZATION ( #47, #180 ) ;
#98 = EDGE_CURVE ( 'NONE', #247, #217, #84, .T. ) ;
#99 = CARTESIAN_POINT ( 'NONE',  ( 46.18802153516983111, -39.99999999999997868, 80.00000000000000000 ) ) ;
#100 = CALENDAR_DATE ( 2021, 17, 8 ) ;
#101 = AXIS2_PLACEMENT_3D ( 'NONE', #175, #78, #235 ) ;
#102 = APPROVAL_PERSON_ORGANIZATION ( #97, #77, #225 ) ;
#103 = ADVANCED_FACE ( 'NONE', ( #79 ), #232, .T. ) ;
#104 = CARTESIAN_POINT ( 'NONE',  ( -0.000000000000000000, 0.000000000000000000, 0.000000000000000000 ) ) ;
#105 = DIRECTION ( 'NONE',  ( 1.000000000000000000, 0.000000000000000000, 0.000000000000000000 ) ) ;
#106 = MECHANICAL_CONTEXT ( 'NONE', #40, 'mechanical' ) ;
#107 = LOCAL_TIME ( 13, 52, 56.00000000000000000, #193 ) ;
#108 = DATE_AND_TIME ( #100, #154 ) ;
#109 = EDGE_CURVE ( 'NONE', #217, #247, #5, .T. ) ;
#110 = UNCERTAINTY_MEASURE_WITH_UNIT (LENGTH_MEASURE( 1.000000000000000082E-05 ), #37, 'distance_accuracy_value', 'NONE');
#111 = PERSON_AND_ORGANIZATION ( #47, #180 ) ;
#112 = CARTESIAN_POINT ( 'NONE',  ( -2.081668171172168513E-14, 40.00000000000000000, 0.000000000000000000 ) ) ;
#113 = CARTESIAN_POINT ( 'NONE',  ( 0.000000000000000000, 0.000000000000000000, 0.000000000000000000 ) ) ;
#114 = CC_DESIGN_DATE_AND_TIME_ASSIGNMENT ( #136, #227, ( #264 ) ) ;
#115 = DATE_AND_TIME ( #58, #123 ) ;
#116 = EDGE_CURVE ( 'NONE', #217, #247, #222, .T. ) ;
#117 = CARTESIAN_POINT ( 'NONE',  ( -92.37604307034017381, 39.99999999999998579, -9.781862966232903917E-13 ) ) ;
#118 = ADVANCED_FACE ( 'NONE', ( #239 ), #167, .T. ) ;
#119 = LOCAL_TIME ( 13, 52, 56.00000000000000000, #86 ) ;
#120 = MECHANICAL_CONTEXT ( 'NONE', #17, 'mechanical' ) ;
#121 = APPROVAL_ROLE ( '' ) ;
#122 = COORDINATED_UNIVERSAL_TIME_OFFSET ( 1, 0, .AHEAD. ) ;
#123 = LOCAL_TIME ( 13, 52, 56.00000000000000000, #127 ) ;
#124 = AXIS2_PLACEMENT_3D ( 'NONE', #212, #233, #172 ) ;
#125 = ADVANCED_BREP_SHAPE_REPRESENTATION ( '3564', ( #149, #166 ), #3 ) ;
#126 = PERSON_AND_ORGANIZATION ( #47, #180 ) ;
#127 = COORDINATED_UNIVERSAL_TIME_OFFSET ( 1, 0, .AHEAD. ) ;
#128 = CARTESIAN_POINT ( 'NONE',  ( 1.040834085586084257E-14, -40.00000000000000000, 0.000000000000000000 ) ) ;
#129 = CALENDAR_DATE ( 2021, 17, 8 ) ;
#130 = EDGE_CURVE ( 'NONE', #217, #247, #176, .T. ) ;
#131 = DIRECTION ( 'NONE',  ( -1.000000000000000000, -6.123233995736766282E-16, 0.000000000000000000 ) ) ;
#132 = APPROVAL ( #209, 'UNSPECIFIED' ) ;
#133 = AXIS2_PLACEMENT_3D ( 'NONE', #157, #10, #223 ) ;
#134 = ADVANCED_FACE ( 'NONE', ( #74 ), #94, .T. ) ;
#135 = ORIENTED_EDGE ( 'NONE', *, *, #254, .F. ) ;
#136 = DATE_AND_TIME ( #33, #70 ) ;
#137 = ORIENTED_EDGE ( 'NONE', *, *, #98, .T. ) ;
#138 = AXIS2_PLACEMENT_3D ( 'NONE', #113, #72, #156 ) ;
#139 = EDGE_LOOP ( 'NONE', ( #18, #252 ) ) ;
#140 = APPLICATION_PROTOCOL_DEFINITION ( 'international standard', 'config_control_design', 1994, #143 ) ;
#141 = PERSON_AND_ORGANIZATION ( #47, #180 ) ;
#142 = SECURITY_CLASSIFICATION_LEVEL ( 'unclassified' ) ;
#143 = APPLICATION_CONTEXT ( 'configuration controlled 3d designs of mechanical parts and assemblies' ) ;
#144 = LOCAL_TIME ( 13, 52, 56.00000000000000000, #45 ) ;
#145 = AXIS2_PLACEMENT_3D ( 'NONE', #258, #131, #260 ) ;
#146 = CC_DESIGN_PERSON_AND_ORGANIZATION_ASSIGNMENT ( #218, #183, ( #31 ) ) ;
#147 = DATE_AND_TIME ( #171, #14 ) ;
#148 = CC_DESIGN_APPROVAL ( #132, ( #200 ) ) ;
#149 = MANIFOLD_SOLID_BREP ( 'Kreismuster2', #28 ) ;
#150 = PERSON_AND_ORGANIZATION ( #47, #180 ) ;
#151 = CARTESIAN_POINT ( 'NONE',  ( -46.18802153516976716, -40.00000000000000000, -79.99999999999995737 ) ) ;
#152 = EDGE_LOOP ( 'NONE', ( #187, #91 ) ) ;
#153 = DIRECTION ( 'NONE',  ( 0.000000000000000000, 0.000000000000000000, 1.000000000000000000 ) ) ;
#154 = LOCAL_TIME ( 13, 52, 56.00000000000000000, #210 ) ;
#155 = DESIGN_CONTEXT ( 'detailed design', #143, 'design' ) ;
#156 = DIRECTION ( 'NONE',  ( 0.000000000000000000, 0.000000000000000000, -1.000000000000000000 ) ) ;
#157 = CARTESIAN_POINT ( 'NONE',  ( 0.000000000000000000, 0.000000000000000000, -0.000000000000000000 ) ) ;
#158 = EDGE_LOOP ( 'NONE', ( #261, #236 ) ) ;
#159 = PERSON_AND_ORGANIZATION ( #47, #180 ) ;
#160 = COORDINATED_UNIVERSAL_TIME_OFFSET ( 1, 0, .AHEAD. ) ;
#161 = CARTESIAN_POINT ( 'NONE',  ( 1.040834085586084257E-14, -40.00000000000000000, 0.000000000000000000 ) ) ;
#162 = DIRECTION ( 'NONE',  ( 1.000000000000000000, 0.000000000000000000, 0.000000000000000000 ) ) ;
#163 = PERSON_AND_ORGANIZATION_ROLE ( 'creator' ) ;
#164 = APPLICATION_PROTOCOL_DEFINITION ( 'international standard', 'config_control_design', 1994, #82 ) ;
#165 = PERSON_AND_ORGANIZATION_ROLE ( 'creator' ) ;
#166 = AXIS2_PLACEMENT_3D ( 'NONE', #178, #153, #162 ) ;
#167 = CYLINDRICAL_SURFACE ( 'NONE', #145, 40.00000000000000000 ) ;
#168 = DATE_AND_TIME ( #221, #62 ) ;
#169 = CC_DESIGN_APPROVAL ( #77, ( #231 ) ) ;
#170 = CARTESIAN_POINT ( 'NONE',  ( -2.081668171172168513E-14, 40.00000000000000000, 0.000000000000000000 ) ) ;
#171 = CALENDAR_DATE ( 2021, 17, 8 ) ;
#172 = DIRECTION ( 'NONE',  ( 0.8660254037844362651, 2.651438096812259522E-16, 0.5000000000000038858 ) ) ;
#173 = CC_DESIGN_APPROVAL ( #186, ( #194 ) ) ;
#174 = CARTESIAN_POINT ( 'NONE',  ( -2.081668171172168513E-14, 40.00000000000000000, 0.000000000000000000 ) ) ;
#175 = CARTESIAN_POINT ( 'NONE',  ( 0.000000000000000000, 0.000000000000000000, 0.000000000000000000 ) ) ;
#176 =( BOUNDED_CURVE ( )  B_SPLINE_CURVE ( 3, ( #262, #197, #237, #192 ),
 .UNSPECIFIED., .F., .F. ) 
 B_SPLINE_CURVE_WITH_KNOTS ( ( 4, 4 ),
 ( 4.712388980384689674, 7.853981633974482790 ),
 .UNSPECIFIED. ) 
 CURVE ( )  GEOMETRIC_REPRESENTATION_ITEM ( )  RATIONAL_B_SPLINE_CURVE ( ( 1.000000000000000000, 0.3333333333333333703, 0.3333333333333333703, 1.000000000000000000 ) ) 
 REPRESENTATION_ITEM ( '' )  );
#177 = AXIS2_PLACEMENT_3D ( 'NONE', #104, #55, #57 ) ;
#178 = CARTESIAN_POINT ( 'NONE',  ( 0.000000000000000000, 0.000000000000000000, 0.000000000000000000 ) ) ;
#179 = APPROVAL_STATUS ( 'not_yet_approved' ) ;
#180 = ORGANIZATION ( 'UNSPECIFIED', 'UNSPECIFIED', '' ) ;
#181 = ADVANCED_FACE ( 'NONE', ( #56 ), #83, .T. ) ;
#182 = APPLICATION_PROTOCOL_DEFINITION ( 'international standard', 'config_control_design', 1994, #40 ) ;
#183 = PERSON_AND_ORGANIZATION_ROLE ( 'classification_officer' ) ;
#184 = DATE_TIME_ROLE ( 'classification_date' ) ;
#185 = APPROVAL_DATE_TIME ( #188, #228 ) ;
#186 = APPROVAL ( #245, 'UNSPECIFIED' ) ;
#187 = ORIENTED_EDGE ( 'NONE', *, *, #116, .T. ) ;
#188 = DATE_AND_TIME ( #129, #34 ) ;
#189 = CARTESIAN_POINT ( 'NONE',  ( 1.040834085586084257E-14, -40.00000000000000000, 0.000000000000000000 ) ) ;
#190 = CC_DESIGN_PERSON_AND_ORGANIZATION_ASSIGNMENT ( #111, #204, ( #200 ) ) ;
#191 = AXIS2_PLACEMENT_3D ( 'NONE', #53, #64, #105 ) ;
#192 = CARTESIAN_POINT ( 'NONE',  ( 1.040834085586084257E-14, -40.00000000000000000, 0.000000000000000000 ) ) ;
#193 = COORDINATED_UNIVERSAL_TIME_OFFSET ( 1, 0, .AHEAD. ) ;
#194 = PRODUCT_DEFINITION_FORMATION_WITH_SPECIFIED_SOURCE ( 'ANY', '', #36, .NOT_KNOWN. ) ;
#195 = DATE_AND_TIME ( #76, #119 ) ;
#196 =( NAMED_UNIT ( * ) SI_UNIT ( $, .STERADIAN. ) SOLID_ANGLE_UNIT ( ) );
#197 = CARTESIAN_POINT ( 'NONE',  ( 46.18802153517016507, 40.00000000000002132, -79.99999999999997158 ) ) ;
#198 = ADVANCED_FACE ( 'NONE', ( #66 ), #226, .T. ) ;
#199 = SECURITY_CLASSIFICATION ( '', '', #142 ) ;
#200 = PRODUCT_DEFINITION_FORMATION_WITH_SPECIFIED_SOURCE ( 'ANY', '', #253, .NOT_KNOWN. ) ;
#201 = CARTESIAN_POINT ( 'NONE',  ( 1.040834085586084257E-14, -40.00000000000000000, 0.000000000000000000 ) ) ;
#202 = PERSON_AND_ORGANIZATION ( #47, #180 ) ;
#203 = APPROVAL_ROLE ( '' ) ;
#204 = PERSON_AND_ORGANIZATION_ROLE ( 'creator' ) ;
#205 = CC_DESIGN_DATE_AND_TIME_ASSIGNMENT ( #2, #208, ( #31 ) ) ;
#206 = PERSON_AND_ORGANIZATION_ROLE ( 'design_owner' ) ;
#207 = CALENDAR_DATE ( 2021, 17, 8 ) ;
#208 = DATE_TIME_ROLE ( 'classification_date' ) ;
#209 = APPROVAL_STATUS ( 'not_yet_approved' ) ;
#210 = COORDINATED_UNIVERSAL_TIME_OFFSET ( 1, 0, .AHEAD. ) ;
#211 = DATE_AND_TIME ( #257, #144 ) ;
#212 = CARTESIAN_POINT ( 'NONE',  ( -0.000000000000000000, 0.000000000000000000, 0.000000000000000000 ) ) ;
#213 = EDGE_LOOP ( 'NONE', ( #44, #89 ) ) ;
#214 = CARTESIAN_POINT ( 'NONE',  ( -2.081668171172168513E-14, 40.00000000000000000, 0.000000000000000000 ) ) ;
#215 = APPROVAL_DATE_TIME ( #26, #77 ) ;
#216 = CARTESIAN_POINT ( 'NONE',  ( 92.37604307034018802, -39.99999999999996447, 2.935330266383709431E-13 ) ) ;
#217 = VERTEX_POINT ( 'NONE', #112 ) ;
#218 = PERSON_AND_ORGANIZATION ( #47, #180 ) ;
#219 = PRODUCT_DEFINITION_SHAPE ( 'NONE', 'NONE',  #264 ) ;
#220 = CC_DESIGN_PERSON_AND_ORGANIZATION_ASSIGNMENT ( #263, #206, ( #36 ) ) ;
#221 = CALENDAR_DATE ( 2021, 17, 8 ) ;
#222 =( BOUNDED_CURVE ( )  B_SPLINE_CURVE ( 3, ( #170, #75, #216, #201 ),
 .UNSPECIFIED., .F., .T. ) 
 B_SPLINE_CURVE_WITH_KNOTS ( ( 4, 4 ),
 ( 4.712388980384689674, 7.853981633974482790 ),
 .UNSPECIFIED. ) 
 CURVE ( )  GEOMETRIC_REPRESENTATION_ITEM ( )  RATIONAL_B_SPLINE_CURVE ( ( 1.000000000000000000, 0.3333333333333333703, 0.3333333333333333703, 1.000000000000000000 ) ) 
 REPRESENTATION_ITEM ( '' )  );
#223 = DIRECTION ( 'NONE',  ( -0.8660254037844433705, -2.651438096812281708E-16, 0.4999999999999918954 ) ) ;
#224 = APPROVAL_PERSON_ORGANIZATION ( #202, #186, #87 ) ;
#225 = APPROVAL_ROLE ( '' ) ;
#226 = CYLINDRICAL_SURFACE ( 'NONE', #177, 40.00000000000001421 ) ;
#227 = DATE_TIME_ROLE ( 'creation_date' ) ;
#228 = APPROVAL ( #246, 'UNSPECIFIED' ) ;
#229 = APPROVAL_PERSON_ORGANIZATION ( #20, #35, #19 ) ;
#230 = APPROVAL ( #179, 'UNSPECIFIED' ) ;
#231 = PRODUCT_DEFINITION ( 'UNKNOWN', '', #194, #73 ) ;
#232 = CYLINDRICAL_SURFACE ( 'NONE', #124, 40.00000000000001421 ) ;
#233 = DIRECTION ( 'NONE',  ( -0.5000000000000041078, -4.592425496802587777E-16, 0.8660254037844363761 ) ) ;
#234 = APPROVAL_DATE_TIME ( #115, #35 ) ;
#235 = DIRECTION ( 'NONE',  ( 0.8660254037844398178, 2.651438096812270862E-16, -0.4999999999999980571 ) ) ;
#236 = ORIENTED_EDGE ( 'NONE', *, *, #8, .F. ) ;
#237 = CARTESIAN_POINT ( 'NONE',  ( 46.18802153517017217, -39.99999999999997158, -80.00000000000000000 ) ) ;
#238 = CARTESIAN_POINT ( 'NONE',  ( 46.18802153516977427, 40.00000000000002842, 80.00000000000000000 ) ) ;
#239 = FACE_OUTER_BOUND ( 'NONE', #213, .T. ) ;
#240 = PERSON_AND_ORGANIZATION ( #47, #180 ) ;
#241 = ADVANCED_FACE ( 'NONE', ( #1 ), #12, .T. ) ;
#242 = CARTESIAN_POINT ( 'NONE',  ( -2.081668171172168513E-14, 40.00000000000000000, 0.000000000000000000 ) ) ;
#243 = EDGE_LOOP ( 'NONE', ( #137, #255 ) ) ;
#244 = COORDINATED_UNIVERSAL_TIME_OFFSET ( 1, 0, .AHEAD. ) ;
#245 = APPROVAL_STATUS ( 'not_yet_approved' ) ;
#246 = APPROVAL_STATUS ( 'not_yet_approved' ) ;
#247 = VERTEX_POINT ( 'NONE', #9 ) ;
#248 = CC_DESIGN_DATE_AND_TIME_ASSIGNMENT ( #147, #267, ( #231 ) ) ;
#249 = PERSON_AND_ORGANIZATION_ROLE ( 'design_supplier' ) ;
#250 = APPROVAL_DATE_TIME ( #108, #230 ) ;
#251 = PERSON_AND_ORGANIZATION ( #47, #180 ) ;
#252 = ORIENTED_EDGE ( 'NONE', *, *, #116, .F. ) ;
#253 = PRODUCT ( '3564', '3564', '', ( #120 ) ) ;
#254 = EDGE_CURVE ( 'NONE', #217, #247, #29, .T. ) ;
#255 = ORIENTED_EDGE ( 'NONE', *, *, #130, .T. ) ;
#256 = EDGE_LOOP ( 'NONE', ( #135, #50 ) ) ;
#257 = CALENDAR_DATE ( 2021, 17, 8 ) ;
#258 = CARTESIAN_POINT ( 'NONE',  ( 0.000000000000000000, 0.000000000000000000, 0.000000000000000000 ) ) ;
#259 = PRODUCT_RELATED_PRODUCT_CATEGORY ( 'detail', '', ( #253 ) ) ;
#260 = DIRECTION ( 'NONE',  ( 0.000000000000000000, 0.000000000000000000, 1.000000000000000000 ) ) ;
#261 = ORIENTED_EDGE ( 'NONE', *, *, #254, .T. ) ;
#262 = CARTESIAN_POINT ( 'NONE',  ( -2.081668171172168513E-14, 40.00000000000000000, 0.000000000000000000 ) ) ;
#263 = PERSON_AND_ORGANIZATION ( #47, #180 ) ;
#264 = PRODUCT_DEFINITION ( 'UNKNOWN', '', #200, #155 ) ;
#265 = CC_DESIGN_PERSON_AND_ORGANIZATION_ASSIGNMENT ( #96, #249, ( #200 ) ) ;
#266 = PERSON_AND_ORGANIZATION_ROLE ( 'design_owner' ) ;
#267 = DATE_TIME_ROLE ( 'creation_date' ) ;
ENDSEC;
END-ISO-10303-21;
